  0
SECTION
  2
HEADER
  9
$ACADVER
  1
AC1032
  9
$ACADMAINTVER
 90
       55
  9
$DWGCODEPAGE
  3
ANSI_1252
  9
$LASTSAVEDBY
  1
ag7413
  9
$REQUIREDVERSIONS
160
                 0
  9
$INSBASE
 10
0.0
 20
0.0
 30
0.0
  9
$EXTMIN
 10
1.000000000000000E+20
 20
1.000000000000000E+20
 30
1.000000000000000E+20
  9
$EXTMAX
 10
-1.000000000000000E+20
 20
-1.000000000000000E+20
 30
-1.000000000000000E+20
  9
$LIMMIN
 10
0.2543298
 20
0.1379394
  9
$LIMMAX
 10
3.2429213
 20
3.6409383
  9
$ORTHOMODE
 70
     0
  9
$REGENMODE
 70
     1
  9
$FILLMODE
 70
     1
  9
$QTEXTMODE
 70
     0
  9
$MIRRTEXT
 70
     1
  9
$LTSCALE
 40
1.0
  9
$ATTMODE
 70
     1
  9
$TEXTSIZE
 40
0.2
  9
$TRACEWID
 40
0.05
  9
$TEXTSTYLE
  7
Standard
  9
$CLAYER
  8
0
  9
$CELTYPE
  6
ByLayer
  9
$CECOLOR
 62
   256
  9
$CELTSCALE
 40
1.0
  9
$DISPSILH
 70
     0
  9
$DIMSCALE
 40
1.0
  9
$DIMASZ
 40
0.18
  9
$DIMEXO
 40
0.0625
  9
$DIMDLI
 40
0.38
  9
$DIMRND
 40
0.0
  9
$DIMDLE
 40
0.0
  9
$DIMEXE
 40
0.18
  9
$DIMTP
 40
0.0
  9
$DIMTM
 40
0.0
  9
$DIMTXT
 40
0.18
  9
$DIMCEN
 40
0.09
  9
$DIMTSZ
 40
0.0
  9
$DIMTOL
 70
     0
  9
$DIMLIM
 70
     0
  9
$DIMTIH
 70
     1
  9
$DIMTOH
 70
     1
  9
$DIMSE1
 70
     0
  9
$DIMSE2
 70
     0
  9
$DIMTAD
 70
     0
  9
$DIMZIN
 70
     0
  9
$DIMBLK
  1

  9
$DIMASO
 70
     1
  9
$DIMSHO
 70
     1
  9
$DIMPOST
  1

  9
$DIMAPOST
  1

  9
$DIMALT
 70
     0
  9
$DIMALTD
 70
     2
  9
$DIMALTF
 40
25.4
  9
$DIMLFAC
 40
1.0
  9
$DIMTOFL
 70
     0
  9
$DIMTVP
 40
0.0
  9
$DIMTIX
 70
     0
  9
$DIMSOXD
 70
     0
  9
$DIMSAH
 70
     0
  9
$DIMBLK1
  1

  9
$DIMBLK2
  1

  9
$DIMSTYLE
  2
Standard
  9
$DIMCLRD
 70
     0
  9
$DIMCLRE
 70
     0
  9
$DIMCLRT
 70
     0
  9
$DIMTFAC
 40
1.0
  9
$DIMGAP
 40
0.09
  9
$DIMJUST
 70
     0
  9
$DIMSD1
 70
     0
  9
$DIMSD2
 70
     0
  9
$DIMTOLJ
 70
     1
  9
$DIMTZIN
 70
     0
  9
$DIMALTZ
 70
     0
  9
$DIMALTTZ
 70
     0
  9
$DIMUPT
 70
     0
  9
$DIMDEC
 70
     4
  9
$DIMTDEC
 70
     4
  9
$DIMALTU
 70
     2
  9
$DIMALTTD
 70
     2
  9
$DIMTXSTY
  7
Standard
  9
$DIMAUNIT
 70
     0
  9
$DIMADEC
 70
     0
  9
$DIMALTRND
 40
0.0
  9
$DIMAZIN
 70
     0
  9
$DIMDSEP
 70
    46
  9
$DIMATFIT
 70
     3
  9
$DIMFRAC
 70
     0
  9
$DIMLDRBLK
  1

  9
$DIMLUNIT
 70
     2
  9
$DIMLWD
 70
    -2
  9
$DIMLWE
 70
    -2
  9
$DIMTMOVE
 70
     0
  9
$DIMFXL
 40
1.0
  9
$DIMFXLON
 70
     0
  9
$DIMJOGANG
 40
0.7853981633974483
  9
$DIMTFILL
 70
     0
  9
$DIMTFILLCLR
 70
     0
  9
$DIMARCSYM
 70
     0
  9
$DIMLTYPE
  6

  9
$DIMLTEX1
  6

  9
$DIMLTEX2
  6

  9
$DIMTXTDIRECTION
 70
     0
  9
$LUNITS
 70
     2
  9
$LUPREC
 70
     4
  9
$SKETCHINC
 40
0.1
  9
$FILLETRAD
 40
0.0
  9
$AUNITS
 70
     0
  9
$AUPREC
 70
     0
  9
$MENU
  1
.
  9
$ELEVATION
 40
0.0
  9
$PELEVATION
 40
0.0
  9
$THICKNESS
 40
0.0
  9
$LIMCHECK
 70
     0
  9
$CHAMFERA
 40
0.0
  9
$CHAMFERB
 40
0.0
  9
$CHAMFERC
 40
0.0
  9
$CHAMFERD
 40
0.0
  9
$SKPOLY
 70
     0
  9
$TDCREATE
 40
2460140.5803014
  9
$TDUCREATE
 40
2460140.746968067
  9
$TDUPDATE
 40
2460140.580305266
  9
$TDUUPDATE
 40
2460140.746971933
  9
$TDINDWG
 40
0.0000000116
  9
$TDUSRTIMER
 40
0.0000000116
  9
$USRTIMER
 70
     1
  9
$ANGBASE
 50
0.0
  9
$ANGDIR
 70
     0
  9
$PDMODE
 70
     0
  9
$PDSIZE
 40
0.0
  9
$PLINEWID
 40
0.0
  9
$SPLFRAME
 70
     0
  9
$SPLINETYPE
 70
     6
  9
$SPLINESEGS
 70
     8
  9
$HANDSEED
  5
1A2
  9
$SURFTAB1
 70
     6
  9
$SURFTAB2
 70
     6
  9
$SURFTYPE
 70
     6
  9
$SURFU
 70
     6
  9
$SURFV
 70
     6
  9
$UCSBASE
  2

  9
$UCSNAME
  2

  9
$UCSORG
 10
0.0
 20
0.0
 30
0.0
  9
$UCSXDIR
 10
1.0
 20
0.0
 30
0.0
  9
$UCSYDIR
 10
0.0
 20
1.0
 30
0.0
  9
$UCSORTHOREF
  2

  9
$UCSORTHOVIEW
 70
     0
  9
$UCSORGTOP
 10
0.0
 20
0.0
 30
0.0
  9
$UCSORGBOTTOM
 10
0.0
 20
0.0
 30
0.0
  9
$UCSORGLEFT
 10
0.0
 20
0.0
 30
0.0
  9
$UCSORGRIGHT
 10
0.0
 20
0.0
 30
0.0
  9
$UCSORGFRONT
 10
0.0
 20
0.0
 30
0.0
  9
$UCSORGBACK
 10
0.0
 20
0.0
 30
0.0
  9
$PUCSBASE
  2

  9
$PUCSNAME
  2

  9
$PUCSORG
 10
0.0
 20
0.0
 30
0.0
  9
$PUCSXDIR
 10
1.0
 20
0.0
 30
0.0
  9
$PUCSYDIR
 10
0.0
 20
1.0
 30
0.0
  9
$PUCSORTHOREF
  2

  9
$PUCSORTHOVIEW
 70
     0
  9
$PUCSORGTOP
 10
0.0
 20
0.0
 30
0.0
  9
$PUCSORGBOTTOM
 10
0.0
 20
0.0
 30
0.0
  9
$PUCSORGLEFT
 10
0.0
 20
0.0
 30
0.0
  9
$PUCSORGRIGHT
 10
0.0
 20
0.0
 30
0.0
  9
$PUCSORGFRONT
 10
0.0
 20
0.0
 30
0.0
  9
$PUCSORGBACK
 10
0.0
 20
0.0
 30
0.0
  9
$USERI1
 70
     0
  9
$USERI2
 70
     0
  9
$USERI3
 70
     0
  9
$USERI4
 70
     0
  9
$USERI5
 70
     0
  9
$USERR1
 40
0.0
  9
$USERR2
 40
0.0
  9
$USERR3
 40
0.0
  9
$USERR4
 40
0.0
  9
$USERR5
 40
0.0
  9
$WORLDVIEW
 70
     1
  9
$SHADEDGE
 70
     3
  9
$SHADEDIF
 70
    70
  9
$TILEMODE
 70
     1
  9
$MAXACTVP
 70
    64
  9
$PINSBASE
 10
0.0
 20
0.0
 30
0.0
  9
$PLIMCHECK
 70
     0
  9
$PEXTMIN
 10
1.000000000000000E+20
 20
1.000000000000000E+20
 30
1.000000000000000E+20
  9
$PEXTMAX
 10
-1.000000000000000E+20
 20
-1.000000000000000E+20
 30
-1.000000000000000E+20
  9
$PLIMMIN
 10
0.0
 20
0.0
  9
$PLIMMAX
 10
12.0
 20
9.0
  9
$UNITMODE
 70
     0
  9
$VISRETAIN
 70
     1
  9
$PLINEGEN
 70
     0
  9
$PSLTSCALE
 70
     1
  9
$TREEDEPTH
 70
  3020
  9
$CMLSTYLE
  2
Standard
  9
$CMLJUST
 70
     0
  9
$CMLSCALE
 40
1.0
  9
$PROXYGRAPHICS
 70
     1
  9
$MEASUREMENT
 70
     0
  9
$CELWEIGHT
370
    -1
  9
$ENDCAPS
280
     0
  9
$JOINSTYLE
280
     0
  9
$LWDISPLAY
290
     0
  9
$INSUNITS
 70
     1
  9
$HYPERLINKBASE
  1

  9
$STYLESHEET
  1

  9
$XEDIT
290
     1
  9
$CEPSNTYPE
380
     0
  9
$PSTYLEMODE
290
     1
  9
$FINGERPRINTGUID
  2
{c6d2486c-cc76-4241-9309-b6caacea1437}
  9
$VERSIONGUID
  2
{FAEB1C32-E019-11D5-929B-00C0DF256EC4}
  9
$EXTNAMES
290
     1
  9
$PSVPSCALE
 40
0.0
  9
$OLESTARTUP
290
     0
  9
$SORTENTS
280
   127
  9
$INDEXCTL
280
     0
  9
$HIDETEXT
280
     1
  9
$XCLIPFRAME
280
     2
  9
$HALOGAP
280
     0
  9
$OBSCOLOR
 70
   257
  9
$OBSLTYPE
280
     0
  9
$INTERSECTIONDISPLAY
280
     0
  9
$INTERSECTIONCOLOR
 70
   257
  9
$DIMASSOC
280
     2
  9
$PROJECTNAME
  1

  9
$CAMERADISPLAY
290
     0
  9
$LENSLENGTH
 40
50.0
  9
$CAMERAHEIGHT
 40
0.0
  9
$STEPSPERSEC
 40
2.0
  9
$STEPSIZE
 40
6.0
  9
$3DDWFPREC
 40
2.0
  9
$PSOLWIDTH
 40
0.25
  9
$PSOLHEIGHT
 40
4.0
  9
$LOFTANG1
 40
1.570796326794897
  9
$LOFTANG2
 40
1.570796326794897
  9
$LOFTMAG1
 40
0.0
  9
$LOFTMAG2
 40
0.0
  9
$LOFTPARAM
 70
     7
  9
$LOFTNORMALS
280
     1
  9
$LATITUDE
 40
37.795
  9
$LONGITUDE
 40
-122.394
  9
$NORTHDIRECTION
 40
0.0
  9
$TIMEZONE
 70
 -8000
  9
$LIGHTGLYPHDISPLAY
280
     1
  9
$TILEMODELIGHTSYNCH
280
     1
  9
$CMATERIAL
347
44
  9
$SOLIDHIST
280
     0
  9
$SHOWHIST
280
     1
  9
$DWFFRAME
280
     2
  9
$DGNFRAME
280
     2
  9
$REALWORLDSCALE
290
     1
  9
$INTERFERECOLOR
 62
   256
  9
$CSHADOW
280
     0
  9
$SHADOWPLANELOCATION
 40
0.0
  0
ENDSEC
  0
SECTION
  2
CLASSES
  0
CLASS
  1
ACDBDICTIONARYWDFLT
  2
AcDbDictionaryWithDefault
  3
ObjectDBX Classes
 90
        0
 91
        3
280
     0
281
     0
  0
CLASS
  1
VISUALSTYLE
  2
AcDbVisualStyle
  3
ObjectDBX Classes
 90
     4095
 91
        3
280
     0
281
     0
  0
CLASS
  1
MATERIAL
  2
AcDbMaterial
  3
ObjectDBX Classes
 90
     1153
 91
        3
280
     0
281
     0
  0
CLASS
  1
SCALE
  2
AcDbScale
  3
ObjectDBX Classes
 90
     1153
 91
        3
280
     0
281
     0
  0
CLASS
  1
TABLESTYLE
  2
AcDbTableStyle
  3
ObjectDBX Classes
 90
     4095
 91
        3
280
     0
281
     0
  0
CLASS
  1
MLEADERSTYLE
  2
AcDbMLeaderStyle
  3
ACDB_MLEADERSTYLE_CLASS
 90
     4095
 91
        3
280
     0
281
     0
  0
CLASS
  1
SUN
  2
AcDbSun
  3
SCENEOE
 90
     1153
 91
        3
280
     0
281
     0
  0
CLASS
  1
DICTIONARYVAR
  2
AcDbDictionaryVar
  3
ObjectDBX Classes
 90
        0
 91
        3
280
     0
281
     0
  0
CLASS
  1
CELLSTYLEMAP
  2
AcDbCellStyleMap
  3
ObjectDBX Classes
 90
     1152
 91
        3
280
     0
281
     0
  0
ENDSEC
  0
SECTION
  2
TABLES
  0
TABLE
  2
VPORT
  5
8
330
0
100
AcDbSymbolTable
 70
     1
  0
VPORT
  5
29
330
8
100
AcDbSymbolTableRecord
100
AcDbViewportTableRecord
  2
*Active
 70
     0
 10
0.0
 20
0.0
 11
1.0
 21
1.0
 12
10.42990654205607
 22
4.5
 13
0.0
 23
0.0
 14
0.5
 24
0.5
 15
0.5
 25
0.5
 16
0.0
 26
0.0
 36
1.0
 17
0.0
 27
0.0
 37
0.0
 40
9.0
 41
1.972972972850329
 42
50.0
 43
0.0
 44
0.0
 50
0.0
 51
0.0
 71
     0
 72
   100
 73
     1
 74
     3
 75
     0
 76
     0
 77
     0
 78
     0
281
     0
 65
     1
110
0.0
120
0.0
130
0.0
111
1.0
121
0.0
131
0.0
112
0.0
122
1.0
132
0.0
 79
     0
146
0.0
348
2F
 60
     3
 61
     5
292
     1
282
     1
141
0.0
142
0.0
 63
   250
361
5D
  0
ENDTAB
  0
TABLE
  2
LTYPE
  5
5
330
0
100
AcDbSymbolTable
 70
     1
  0
LTYPE
  5
14
330
5
100
AcDbSymbolTableRecord
100
AcDbLinetypeTableRecord
  2
ByBlock
 70
     0
  3

 72
    65
 73
     0
 40
0.0
  0
LTYPE
  5
15
330
5
100
AcDbSymbolTableRecord
100
AcDbLinetypeTableRecord
  2
ByLayer
 70
     0
  3

 72
    65
 73
     0
 40
0.0
  0
LTYPE
  5
16
330
5
100
AcDbSymbolTableRecord
100
AcDbLinetypeTableRecord
  2
Continuous
 70
     0
  3
Solid line
 72
    65
 73
     0
 40
0.0
  0
ENDTAB
  0
TABLE
  2
LAYER
  5
2
330
0
100
AcDbSymbolTable
 70
     4
  0
LAYER
  5
10
330
2
100
AcDbSymbolTableRecord
100
AcDbLayerTableRecord
  2
0
 70
     0
 62
     7
  6
Continuous
370
    -3
390
F
347
46
348
0
  0
LAYER
  5
5E
330
2
100
AcDbSymbolTableRecord
100
AcDbLayerTableRecord
  2
Mechanical 1
 70
     0
 62
     6
  6
Continuous
370
    -3
390
F
347
46
348
0
  0
LAYER
  5
5F
330
2
100
AcDbSymbolTableRecord
100
AcDbLayerTableRecord
  2
Pad Holes
 70
     0
 62
   156
  6
Continuous
370
    -3
390
F
347
46
348
0
  0
LAYER
  5
60
330
2
100
AcDbSymbolTableRecord
100
AcDbLayerTableRecord
  2
Via Holes
 70
     0
 62
    16
  6
Continuous
370
    -3
390
F
347
46
348
0
  0
ENDTAB
  0
TABLE
  2
STYLE
  5
3
330
0
100
AcDbSymbolTable
 70
     1
  0
STYLE
  5
11
330
3
100
AcDbSymbolTableRecord
100
AcDbTextStyleTableRecord
  2
Standard
 70
     0
 40
0.0
 41
1.0
 50
0.0
 71
     0
 42
0.2
  3
txt
  4

  0
ENDTAB
  0
TABLE
  2
VIEW
  5
6
330
0
100
AcDbSymbolTable
 70
     0
  0
ENDTAB
  0
TABLE
  2
UCS
  5
7
330
0
100
AcDbSymbolTable
 70
     0
  0
ENDTAB
  0
TABLE
  2
APPID
  5
9
330
0
100
AcDbSymbolTable
 70
     1
  0
APPID
  5
12
330
9
100
AcDbSymbolTableRecord
100
AcDbRegAppTableRecord
  2
ACAD
 70
     0
  0
ENDTAB
  0
TABLE
  2
DIMSTYLE
  5
A
330
0
100
AcDbSymbolTable
 70
     1
100
AcDbDimStyleTable
  0
DIMSTYLE
105
27
330
A
100
AcDbSymbolTableRecord
100
AcDbDimStyleTableRecord
  2
Standard
 70
     0
178
     0
340
11
  0
ENDTAB
  0
TABLE
  2
BLOCK_RECORD
  5
1
330
0
100
AcDbSymbolTable
 70
     1
  0
BLOCK_RECORD
  5
1F
330
1
100
AcDbSymbolTableRecord
100
AcDbBlockTableRecord
  2
*Model_Space
340
22
 70
     0
280
     1
281
     0
  0
BLOCK_RECORD
  5
1B
330
1
100
AcDbSymbolTableRecord
100
AcDbBlockTableRecord
  2
*Paper_Space
340
1E
 70
     0
280
     1
281
     0
  0
BLOCK_RECORD
  5
23
330
1
100
AcDbSymbolTableRecord
100
AcDbBlockTableRecord
  2
*Paper_Space0
340
26
 70
     0
280
     1
281
     0
  0
ENDTAB
  0
ENDSEC
  0
SECTION
  2
BLOCKS
  0
BLOCK
  5
20
330
1F
100
AcDbEntity
  8
0
100
AcDbBlockBegin
  2
*Model_Space
 70
     0
 10
0.0
 20
0.0
 30
0.0
  3
*Model_Space
  1

  0
ENDBLK
  5
21
330
1F
100
AcDbEntity
  8
0
100
AcDbBlockEnd
  0
BLOCK
  5
1C
330
1B
100
AcDbEntity
 67
     1
  8
0
100
AcDbBlockBegin
  2
*Paper_Space
 70
     0
 10
0.0
 20
0.0
 30
0.0
  3
*Paper_Space
  1

  0
ENDBLK
  5
1D
330
1B
100
AcDbEntity
 67
     1
  8
0
100
AcDbBlockEnd
  0
BLOCK
  5
24
330
23
100
AcDbEntity
  8
0
100
AcDbBlockBegin
  2
*Paper_Space0
 70
     0
 10
0.0
 20
0.0
 30
0.0
  3
*Paper_Space0
  1

  0
ENDBLK
  5
25
330
23
100
AcDbEntity
  8
0
100
AcDbBlockEnd
  0
ENDSEC
  0
SECTION
  2
ENTITIES
  0
LWPOLYLINE
  5
61
330
1F
100
AcDbEntity
  8
Mechanical 1
100
AcDbPolyline
 90
        2
 70
     0
 43
0.0005
 10
3.1180811
 20
2.272788
 10
3.1499375
 20
2.314698
  0
LWPOLYLINE
  5
62
330
1F
100
AcDbEntity
  8
Mechanical 1
100
AcDbPolyline
 90
        2
 70
     1
 43
0.00025
 10
3.1179561
 20
2.272788
 42
1.0
 10
3.1182061
 20
2.272788
 42
1.0
  0
LWPOLYLINE
  5
63
330
1F
100
AcDbEntity
  8
Mechanical 1
100
AcDbPolyline
 90
        2
 70
     1
 43
0.00025
 10
3.1498125
 20
2.314698
 42
1.0
 10
3.1500625
 20
2.314698
 42
1.0
  0
LWPOLYLINE
  5
64
330
1F
100
AcDbEntity
  8
Mechanical 1
100
AcDbPolyline
 90
        2
 70
     0
 43
0.0005
 10
3.1180811
 20
2.272788
 10
3.1273246
 20
1.968714
  0
LWPOLYLINE
  5
65
330
1F
100
AcDbEntity
  8
Mechanical 1
100
AcDbPolyline
 90
        2
 70
     1
 43
0.00025
 10
3.1179561
 20
2.272788
 42
1.0
 10
3.1182061
 20
2.272788
 42
1.0
  0
LWPOLYLINE
  5
66
330
1F
100
AcDbEntity
  8
Mechanical 1
100
AcDbPolyline
 90
        2
 70
     1
 43
0.00025
 10
3.1271996
 20
1.968714
 42
1.0
 10
3.1274496
 20
1.968714
 42
1.0
  0
LWPOLYLINE
  5
67
330
1F
100
AcDbEntity
  8
Mechanical 1
100
AcDbPolyline
 90
        2
 70
     0
 43
0.0005
 10
0.68544
 20
1.2983936
 10
0.7302922
 20
1.2073408
  0
LWPOLYLINE
  5
68
330
1F
100
AcDbEntity
  8
Mechanical 1
100
AcDbPolyline
 90
        2
 70
     1
 43
0.00025
 10
0.685315
 20
1.2983936
 42
1.0
 10
0.685565
 20
1.2983936
 42
1.0
  0
LWPOLYLINE
  5
69
330
1F
100
AcDbEntity
  8
Mechanical 1
100
AcDbPolyline
 90
        2
 70
     1
 43
0.00025
 10
0.7301672
 20
1.2073408
 42
1.0
 10
0.7304172
 20
1.2073408
 42
1.0
  0
LWPOLYLINE
  5
6A
330
1F
100
AcDbEntity
  8
Mechanical 1
100
AcDbPolyline
 90
        2
 70
     0
 43
0.0005
 10
0.6812273
 20
1.6055488
 10
0.68544
 20
1.2983936
  0
LWPOLYLINE
  5
6B
330
1F
100
AcDbEntity
  8
Mechanical 1
100
AcDbPolyline
 90
        2
 70
     1
 43
0.00025
 10
0.6811023
 20
1.6055488
 42
1.0
 10
0.6813523
 20
1.6055488
 42
1.0
  0
LWPOLYLINE
  5
6C
330
1F
100
AcDbEntity
  8
Mechanical 1
100
AcDbPolyline
 90
        2
 70
     1
 43
0.00025
 10
0.685315
 20
1.2983936
 42
1.0
 10
0.685565
 20
1.2983936
 42
1.0
  0
LWPOLYLINE
  5
6D
330
1F
100
AcDbEntity
  8
Mechanical 1
100
AcDbPolyline
 90
        2
 70
     0
 43
0.0005
 10
1.808256
 20
3.6286167
 42
-0.031738
 10
1.8991137
 20
3.6379907
  0
LWPOLYLINE
  5
6E
330
1F
100
AcDbEntity
  8
Mechanical 1
100
AcDbPolyline
 90
        2
 70
     1
 43
0.00025
 10
1.808131
 20
3.6286167
 42
1.0
 10
1.808381
 20
3.6286167
 42
1.0
  0
LWPOLYLINE
  5
6F
330
1F
100
AcDbEntity
  8
Mechanical 1
100
AcDbPolyline
 90
        2
 70
     1
 43
0.00025
 10
1.8989887
 20
3.6379907
 42
1.0
 10
1.8992387
 20
3.6379907
 42
1.0
  0
LWPOLYLINE
  5
70
330
1F
100
AcDbEntity
  8
Mechanical 1
100
AcDbPolyline
 90
        2
 70
     0
 43
0.0005
 10
1.8991137
 20
3.6379907
 42
-0.009857
 10
2.0364413
 20
3.6406883
  0
LWPOLYLINE
  5
71
330
1F
100
AcDbEntity
  8
Mechanical 1
100
AcDbPolyline
 90
        2
 70
     1
 43
0.00025
 10
1.8989887
 20
3.6379907
 42
1.0
 10
1.8992387
 20
3.6379907
 42
1.0
  0
LWPOLYLINE
  5
72
330
1F
100
AcDbEntity
  8
Mechanical 1
100
AcDbPolyline
 90
        2
 70
     1
 43
0.00025
 10
2.0363163
 20
3.6406883
 42
1.0
 10
2.0365663
 20
3.6406883
 42
1.0
  0
LWPOLYLINE
  5
73
330
1F
100
AcDbEntity
  8
Mechanical 1
100
AcDbPolyline
 90
        2
 70
     0
 43
0.0005
 10
2.0364413
 20
3.6406882
 42
-0.0101580000000001
 10
2.1765579
 20
3.6378311
  0
LWPOLYLINE
  5
74
330
1F
100
AcDbEntity
  8
Mechanical 1
100
AcDbPolyline
 90
        2
 70
     1
 43
0.00025
 10
2.0363163
 20
3.6406882
 42
1.0
 10
2.0365663
 20
3.6406882
 42
1.0
  0
LWPOLYLINE
  5
75
330
1F
100
AcDbEntity
  8
Mechanical 1
100
AcDbPolyline
 90
        2
 70
     1
 43
0.00025
 10
2.1764329
 20
3.6378311
 42
1.0
 10
2.1766829
 20
3.6378311
 42
1.0
  0
LWPOLYLINE
  5
76
330
1F
100
AcDbEntity
  8
Mechanical 1
100
AcDbPolyline
 90
        2
 70
     0
 43
0.0005
 10
2.1765579
 20
3.637831
 42
-0.0239870000000001
 10
2.2805912
 20
3.6285822
  0
LWPOLYLINE
  5
77
330
1F
100
AcDbEntity
  8
Mechanical 1
100
AcDbPolyline
 90
        2
 70
     1
 43
0.00025
 10
2.1764329
 20
3.637831
 42
1.0
 10
2.1766829
 20
3.637831
 42
1.0
  0
LWPOLYLINE
  5
78
330
1F
100
AcDbEntity
  8
Mechanical 1
100
AcDbPolyline
 90
        2
 70
     1
 43
0.00025
 10
2.2804662
 20
3.6285822
 42
1.0
 10
2.2807162
 20
3.6285822
 42
1.0
  0
LWPOLYLINE
  5
79
330
1F
100
AcDbEntity
  8
Mechanical 1
100
AcDbPolyline
 90
        2
 70
     0
 43
0.0005
 10
2.2805912
 20
3.6285823
 42
-0.041268
 10
2.4142628
 20
3.598814
  0
LWPOLYLINE
  5
7A
330
1F
100
AcDbEntity
  8
Mechanical 1
100
AcDbPolyline
 90
        2
 70
     1
 43
0.00025
 10
2.2804662
 20
3.6285823
 42
1.0
 10
2.2807162
 20
3.6285823
 42
1.0
  0
LWPOLYLINE
  5
7B
330
1F
100
AcDbEntity
  8
Mechanical 1
100
AcDbPolyline
 90
        2
 70
     1
 43
0.00025
 10
2.4141378
 20
3.598814
 42
1.0
 10
2.4143878
 20
3.598814
 42
1.0
  0
LWPOLYLINE
  5
7C
330
1F
100
AcDbEntity
  8
Mechanical 1
100
AcDbPolyline
 90
        2
 70
     0
 43
0.0005
 10
2.4142628
 20
3.598814
 42
-0.043638
 10
2.5386344
 20
3.5478603
  0
LWPOLYLINE
  5
7D
330
1F
100
AcDbEntity
  8
Mechanical 1
100
AcDbPolyline
 90
        2
 70
     1
 43
0.00025
 10
2.4141378
 20
3.598814
 42
1.0
 10
2.4143878
 20
3.598814
 42
1.0
  0
LWPOLYLINE
  5
7E
330
1F
100
AcDbEntity
  8
Mechanical 1
100
AcDbPolyline
 90
        2
 70
     1
 43
0.00025
 10
2.5385094
 20
3.5478603
 42
1.0
 10
2.5387594
 20
3.5478603
 42
1.0
  0
LWPOLYLINE
  5
7F
330
1F
100
AcDbEntity
  8
Mechanical 1
100
AcDbPolyline
 90
        2
 70
     0
 43
0.0005
 10
2.5386345
 20
3.5478603
 42
-0.041619
 10
2.6571893
 20
3.4736575
  0
LWPOLYLINE
  5
80
330
1F
100
AcDbEntity
  8
Mechanical 1
100
AcDbPolyline
 90
        2
 70
     1
 43
0.00025
 10
2.5385095
 20
3.5478603
 42
1.0
 10
2.5387595
 20
3.5478603
 42
1.0
  0
LWPOLYLINE
  5
81
330
1F
100
AcDbEntity
  8
Mechanical 1
100
AcDbPolyline
 90
        2
 70
     1
 43
0.00025
 10
2.6570643
 20
3.4736575
 42
1.0
 10
2.6573143
 20
3.4736575
 42
1.0
  0
LWPOLYLINE
  5
82
330
1F
100
AcDbEntity
  8
Mechanical 1
100
AcDbPolyline
 90
        2
 70
     0
 43
0.0005
 10
2.6571891
 20
3.4736574
 42
-0.031898
 10
2.7735387
 20
3.3744164
  0
LWPOLYLINE
  5
83
330
1F
100
AcDbEntity
  8
Mechanical 1
100
AcDbPolyline
 90
        2
 70
     1
 43
0.00025
 10
2.6570641
 20
3.4736574
 42
1.0
 10
2.6573141
 20
3.4736574
 42
1.0
  0
LWPOLYLINE
  5
84
330
1F
100
AcDbEntity
  8
Mechanical 1
100
AcDbPolyline
 90
        2
 70
     1
 43
0.00025
 10
2.7734137
 20
3.3744164
 42
1.0
 10
2.7736637
 20
3.3744164
 42
1.0
  0
LWPOLYLINE
  5
85
330
1F
100
AcDbEntity
  8
Mechanical 1
100
AcDbPolyline
 90
        2
 70
     0
 43
0.0005
 10
2.7735387
 20
3.3744164
 42
-0.015144
 10
2.8465278
 20
3.2992238
  0
LWPOLYLINE
  5
86
330
1F
100
AcDbEntity
  8
Mechanical 1
100
AcDbPolyline
 90
        2
 70
     1
 43
0.00025
 10
2.7734137
 20
3.3744164
 42
1.0
 10
2.7736637
 20
3.3744164
 42
1.0
  0
LWPOLYLINE
  5
87
330
1F
100
AcDbEntity
  8
Mechanical 1
100
AcDbPolyline
 90
        2
 70
     1
 43
0.00025
 10
2.8464028
 20
3.2992238
 42
1.0
 10
2.8466528
 20
3.2992238
 42
1.0
  0
LWPOLYLINE
  5
88
330
1F
100
AcDbEntity
  8
Mechanical 1
100
AcDbPolyline
 90
        2
 70
     0
 43
0.0005
 10
2.8465279
 20
3.2992239
 42
-0.030049
 10
2.8987559
 20
3.2346599
  0
LWPOLYLINE
  5
89
330
1F
100
AcDbEntity
  8
Mechanical 1
100
AcDbPolyline
 90
        2
 70
     1
 43
0.00025
 10
2.8464029
 20
3.2992239
 42
1.0
 10
2.8466529
 20
3.2992239
 42
1.0
  0
LWPOLYLINE
  5
8A
330
1F
100
AcDbEntity
  8
Mechanical 1
100
AcDbPolyline
 90
        2
 70
     1
 43
0.00025
 10
2.8986309
 20
3.2346599
 42
1.0
 10
2.8988809
 20
3.2346599
 42
1.0
  0
LWPOLYLINE
  5
8B
330
1F
100
AcDbEntity
  8
Mechanical 1
100
AcDbPolyline
 90
        2
 70
     0
 43
0.0005
 10
2.8987559
 20
3.2346599
 42
-0.035034
 10
2.9306936
 20
3.1825734
  0
LWPOLYLINE
  5
8C
330
1F
100
AcDbEntity
  8
Mechanical 1
100
AcDbPolyline
 90
        2
 70
     1
 43
0.00025
 10
2.8986309
 20
3.2346599
 42
1.0
 10
2.8988809
 20
3.2346599
 42
1.0
  0
LWPOLYLINE
  5
8D
330
1F
100
AcDbEntity
  8
Mechanical 1
100
AcDbPolyline
 90
        2
 70
     1
 43
0.00025
 10
2.9305686
 20
3.1825734
 42
1.0
 10
2.9308186
 20
3.1825734
 42
1.0
  0
LWPOLYLINE
  5
8E
330
1F
100
AcDbEntity
  8
Mechanical 1
100
AcDbPolyline
 90
        2
 70
     0
 43
0.0005
 10
2.9306936
 20
3.1825734
 42
-0.214819999999998
 10
2.932439
 20
3.1518784
  0
LWPOLYLINE
  5
8F
330
1F
100
AcDbEntity
  8
Mechanical 1
100
AcDbPolyline
 90
        2
 70
     1
 43
0.00025
 10
2.9305686
 20
3.1825734
 42
1.0
 10
2.9308186
 20
3.1825734
 42
1.0
  0
LWPOLYLINE
  5
90
330
1F
100
AcDbEntity
  8
Mechanical 1
100
AcDbPolyline
 90
        2
 70
     1
 43
0.00025
 10
2.932314
 20
3.1518784
 42
1.0
 10
2.932564
 20
3.1518784
 42
1.0
  0
LWPOLYLINE
  5
91
330
1F
100
AcDbEntity
  8
Mechanical 1
100
AcDbPolyline
 90
        2
 70
     0
 43
0.0005
 10
2.9335197
 20
3.1369809
 42
-0.2229999999999979
 10
2.932439
 20
3.1518783
  0
LWPOLYLINE
  5
92
330
1F
100
AcDbEntity
  8
Mechanical 1
100
AcDbPolyline
 90
        2
 70
     1
 43
0.00025
 10
2.9333947
 20
3.1369809
 42
1.0
 10
2.9336447
 20
3.1369809
 42
1.0
  0
LWPOLYLINE
  5
93
330
1F
100
AcDbEntity
  8
Mechanical 1
100
AcDbPolyline
 90
        2
 70
     1
 43
0.00025
 10
2.932314
 20
3.1518783
 42
1.0
 10
2.932564
 20
3.1518783
 42
1.0
  0
LWPOLYLINE
  5
94
330
1F
100
AcDbEntity
  8
Mechanical 1
100
AcDbPolyline
 90
        2
 70
     0
 43
0.0005
 10
2.9499442
 20
3.1121046
 42
-0.0361730000000001
 10
2.9335197
 20
3.1369809
  0
LWPOLYLINE
  5
95
330
1F
100
AcDbEntity
  8
Mechanical 1
100
AcDbPolyline
 90
        2
 70
     1
 43
0.00025
 10
2.9498192
 20
3.1121046
 42
1.0
 10
2.9500692
 20
3.1121046
 42
1.0
  0
LWPOLYLINE
  5
96
330
1F
100
AcDbEntity
  8
Mechanical 1
100
AcDbPolyline
 90
        2
 70
     1
 43
0.00025
 10
2.9333947
 20
3.1369809
 42
1.0
 10
2.9336447
 20
3.1369809
 42
1.0
  0
LWPOLYLINE
  5
97
330
1F
100
AcDbEntity
  8
Mechanical 1
100
AcDbPolyline
 90
        2
 70
     0
 43
0.0005
 10
2.9790209
 20
3.0781444
 42
-0.0261159999999999
 10
2.9499442
 20
3.1121046
  0
LWPOLYLINE
  5
98
330
1F
100
AcDbEntity
  8
Mechanical 1
100
AcDbPolyline
 90
        2
 70
     1
 43
0.00025
 10
2.9788959
 20
3.0781444
 42
1.0
 10
2.9791459
 20
3.0781444
 42
1.0
  0
LWPOLYLINE
  5
99
330
1F
100
AcDbEntity
  8
Mechanical 1
100
AcDbPolyline
 90
        2
 70
     1
 43
0.00025
 10
2.9498192
 20
3.1121046
 42
1.0
 10
2.9500692
 20
3.1121046
 42
1.0
  0
LWPOLYLINE
  5
9A
330
1F
100
AcDbEntity
  8
Mechanical 1
100
AcDbPolyline
 90
        2
 70
     0
 43
0.0005
 10
3.0257618
 20
3.0306005
 42
-0.00829
 10
2.9790209
 20
3.0781444
  0
LWPOLYLINE
  5
9B
330
1F
100
AcDbEntity
  8
Mechanical 1
100
AcDbPolyline
 90
        2
 70
     1
 43
0.00025
 10
3.0256368
 20
3.0306005
 42
1.0
 10
3.0258868
 20
3.0306005
 42
1.0
  0
LWPOLYLINE
  5
9C
330
1F
100
AcDbEntity
  8
Mechanical 1
100
AcDbPolyline
 90
        2
 70
     1
 43
0.00025
 10
2.9788959
 20
3.0781444
 42
1.0
 10
2.9791459
 20
3.0781444
 42
1.0
  0
LWPOLYLINE
  5
9D
330
1F
100
AcDbEntity
  8
Mechanical 1
100
AcDbPolyline
 90
        2
 70
     0
 43
0.0005
 10
3.0257618
 20
3.0306005
 42
-0.063511
 10
3.1663995
 20
2.8518424
  0
LWPOLYLINE
  5
9E
330
1F
100
AcDbEntity
  8
Mechanical 1
100
AcDbPolyline
 90
        2
 70
     1
 43
0.00025
 10
3.0256368
 20
3.0306005
 42
1.0
 10
3.0258868
 20
3.0306005
 42
1.0
  0
LWPOLYLINE
  5
9F
330
1F
100
AcDbEntity
  8
Mechanical 1
100
AcDbPolyline
 90
        2
 70
     1
 43
0.00025
 10
3.1662745
 20
2.8518424
 42
1.0
 10
3.1665245
 20
2.8518424
 42
1.0
  0
LWPOLYLINE
  5
A0
330
1F
100
AcDbEntity
  8
Mechanical 1
100
AcDbPolyline
 90
        2
 70
     0
 43
0.0005
 10
3.1663995
 20
2.8518425
 42
-0.0922629999999999
 10
3.2361265
 20
2.6641816
  0
LWPOLYLINE
  5
A1
330
1F
100
AcDbEntity
  8
Mechanical 1
100
AcDbPolyline
 90
        2
 70
     1
 43
0.00025
 10
3.1662745
 20
2.8518425
 42
1.0
 10
3.1665245
 20
2.8518425
 42
1.0
  0
LWPOLYLINE
  5
A2
330
1F
100
AcDbEntity
  8
Mechanical 1
100
AcDbPolyline
 90
        2
 70
     1
 43
0.00025
 10
3.2360015
 20
2.6641816
 42
1.0
 10
3.2362515
 20
2.6641816
 42
1.0
  0
LWPOLYLINE
  5
A3
330
1F
100
AcDbEntity
  8
Mechanical 1
100
AcDbPolyline
 90
        2
 70
     0
 43
0.0005
 10
3.2361265
 20
2.6641816
 42
-0.1040800000000001
 10
3.2295925
 20
2.4810757
  0
LWPOLYLINE
  5
A4
330
1F
100
AcDbEntity
  8
Mechanical 1
100
AcDbPolyline
 90
        2
 70
     1
 43
0.00025
 10
3.2360015
 20
2.6641816
 42
1.0
 10
3.2362515
 20
2.6641816
 42
1.0
  0
LWPOLYLINE
  5
A5
330
1F
100
AcDbEntity
  8
Mechanical 1
100
AcDbPolyline
 90
        2
 70
     1
 43
0.00025
 10
3.2294675
 20
2.4810757
 42
1.0
 10
3.2297175
 20
2.4810757
 42
1.0
  0
LWPOLYLINE
  5
A6
330
1F
100
AcDbEntity
  8
Mechanical 1
100
AcDbPolyline
 90
        2
 70
     0
 43
0.0005
 10
3.2295925
 20
2.4810757
 42
-0.102067
 10
3.1499375
 20
2.314698
  0
LWPOLYLINE
  5
A7
330
1F
100
AcDbEntity
  8
Mechanical 1
100
AcDbPolyline
 90
        2
 70
     1
 43
0.00025
 10
3.2294675
 20
2.4810757
 42
1.0
 10
3.2297175
 20
2.4810757
 42
1.0
  0
LWPOLYLINE
  5
A8
330
1F
100
AcDbEntity
  8
Mechanical 1
100
AcDbPolyline
 90
        2
 70
     1
 43
0.00025
 10
3.1498125
 20
2.314698
 42
1.0
 10
3.1500625
 20
2.314698
 42
1.0
  0
LWPOLYLINE
  5
A9
330
1F
100
AcDbEntity
  8
Mechanical 1
100
AcDbPolyline
 90
        2
 70
     0
 43
0.0005
 10
3.1273246
 20
1.968714
 42
-0.007194
 10
3.130833
 20
1.7494803
  0
LWPOLYLINE
  5
AA
330
1F
100
AcDbEntity
  8
Mechanical 1
100
AcDbPolyline
 90
        2
 70
     1
 43
0.00025
 10
3.1271996
 20
1.968714
 42
1.0
 10
3.1274496
 20
1.968714
 42
1.0
  0
LWPOLYLINE
  5
AB
330
1F
100
AcDbEntity
  8
Mechanical 1
100
AcDbPolyline
 90
        2
 70
     1
 43
0.00025
 10
3.130708
 20
1.7494803
 42
1.0
 10
3.130958
 20
1.7494803
 42
1.0
  0
LWPOLYLINE
  5
AC
330
1F
100
AcDbEntity
  8
Mechanical 1
100
AcDbPolyline
 90
        2
 70
     0
 43
0.0005
 10
3.130833
 20
1.7494803
 42
-0.0165199999999999
 10
3.1256472
 20
1.5844981
  0
LWPOLYLINE
  5
AD
330
1F
100
AcDbEntity
  8
Mechanical 1
100
AcDbPolyline
 90
        2
 70
     1
 43
0.00025
 10
3.130708
 20
1.7494803
 42
1.0
 10
3.130958
 20
1.7494803
 42
1.0
  0
LWPOLYLINE
  5
AE
330
1F
100
AcDbEntity
  8
Mechanical 1
100
AcDbPolyline
 90
        2
 70
     1
 43
0.00025
 10
3.1255222
 20
1.5844981
 42
1.0
 10
3.1257722
 20
1.5844981
 42
1.0
  0
LWPOLYLINE
  5
AF
330
1F
100
AcDbEntity
  8
Mechanical 1
100
AcDbPolyline
 90
        2
 70
     0
 43
0.0005
 10
3.1256472
 20
1.5844981
 42
-0.0142300000000002
 10
3.1090264
 20
1.4061357
  0
LWPOLYLINE
  5
B0
330
1F
100
AcDbEntity
  8
Mechanical 1
100
AcDbPolyline
 90
        2
 70
     1
 43
0.00025
 10
3.1255222
 20
1.5844981
 42
1.0
 10
3.1257722
 20
1.5844981
 42
1.0
  0
LWPOLYLINE
  5
B1
330
1F
100
AcDbEntity
  8
Mechanical 1
100
AcDbPolyline
 90
        2
 70
     1
 43
0.00025
 10
3.1089014
 20
1.4061357
 42
1.0
 10
3.1091514
 20
1.4061357
 42
1.0
  0
LWPOLYLINE
  5
B2
330
1F
100
AcDbEntity
  8
Mechanical 1
100
AcDbPolyline
 90
        2
 70
     0
 43
0.0005
 10
3.1090264
 20
1.4061357
 42
-0.0041440000000001
 10
3.0733523
 20
1.1325529
  0
LWPOLYLINE
  5
B3
330
1F
100
AcDbEntity
  8
Mechanical 1
100
AcDbPolyline
 90
        2
 70
     1
 43
0.00025
 10
3.1089014
 20
1.4061357
 42
1.0
 10
3.1091514
 20
1.4061357
 42
1.0
  0
LWPOLYLINE
  5
B4
330
1F
100
AcDbEntity
  8
Mechanical 1
100
AcDbPolyline
 90
        2
 70
     1
 43
0.00025
 10
3.0732273
 20
1.1325529
 42
1.0
 10
3.0734773
 20
1.1325529
 42
1.0
  0
LWPOLYLINE
  5
B5
330
1F
100
AcDbEntity
  8
Mechanical 1
100
AcDbPolyline
 90
        2
 70
     0
 43
0.0005
 10
3.0733523
 20
1.1325529
 42
-0.0115349999999997
 10
3.0329941
 20
0.8840858
  0
LWPOLYLINE
  5
B6
330
1F
100
AcDbEntity
  8
Mechanical 1
100
AcDbPolyline
 90
        2
 70
     1
 43
0.00025
 10
3.0732273
 20
1.1325529
 42
1.0
 10
3.0734773
 20
1.1325529
 42
1.0
  0
LWPOLYLINE
  5
B7
330
1F
100
AcDbEntity
  8
Mechanical 1
100
AcDbPolyline
 90
        2
 70
     1
 43
0.00025
 10
3.0328691
 20
0.8840858
 42
1.0
 10
3.0331191
 20
0.8840858
 42
1.0
  0
LWPOLYLINE
  5
B8
330
1F
100
AcDbEntity
  8
Mechanical 1
100
AcDbPolyline
 90
        2
 70
     0
 43
0.0005
 10
3.0329941
 20
0.8840858
 42
-0.028587
 10
2.9889506
 20
0.7050778
  0
LWPOLYLINE
  5
B9
330
1F
100
AcDbEntity
  8
Mechanical 1
100
AcDbPolyline
 90
        2
 70
     1
 43
0.00025
 10
3.0328691
 20
0.8840858
 42
1.0
 10
3.0331191
 20
0.8840858
 42
1.0
  0
LWPOLYLINE
  5
BA
330
1F
100
AcDbEntity
  8
Mechanical 1
100
AcDbPolyline
 90
        2
 70
     1
 43
0.00025
 10
2.9888256
 20
0.7050778
 42
1.0
 10
2.9890756
 20
0.7050778
 42
1.0
  0
LWPOLYLINE
  5
BB
330
1F
100
AcDbEntity
  8
Mechanical 1
100
AcDbPolyline
 90
        2
 70
     0
 43
0.0005
 10
2.9889506
 20
0.7050778
 42
-0.0394340000000002
 10
2.9382744
 20
0.5771759
  0
LWPOLYLINE
  5
BC
330
1F
100
AcDbEntity
  8
Mechanical 1
100
AcDbPolyline
 90
        2
 70
     1
 43
0.00025
 10
2.9888256
 20
0.7050778
 42
1.0
 10
2.9890756
 20
0.7050778
 42
1.0
  0
LWPOLYLINE
  5
BD
330
1F
100
AcDbEntity
  8
Mechanical 1
100
AcDbPolyline
 90
        2
 70
     1
 43
0.00025
 10
2.9381494
 20
0.5771759
 42
1.0
 10
2.9383994
 20
0.5771759
 42
1.0
  0
LWPOLYLINE
  5
BE
330
1F
100
AcDbEntity
  8
Mechanical 1
100
AcDbPolyline
 90
        2
 70
     0
 43
0.0005
 10
2.9382744
 20
0.5771759
 42
-0.0891689999999999
 10
2.8768014
 20
0.4935566
  0
LWPOLYLINE
  5
BF
330
1F
100
AcDbEntity
  8
Mechanical 1
100
AcDbPolyline
 90
        2
 70
     1
 43
0.00025
 10
2.9381494
 20
0.5771759
 42
1.0
 10
2.9383994
 20
0.5771759
 42
1.0
  0
LWPOLYLINE
  5
C0
330
1F
100
AcDbEntity
  8
Mechanical 1
100
AcDbPolyline
 90
        2
 70
     1
 43
0.00025
 10
2.8766764
 20
0.4935566
 42
1.0
 10
2.8769264
 20
0.4935566
 42
1.0
  0
LWPOLYLINE
  5
C1
330
1F
100
AcDbEntity
  8
Mechanical 1
100
AcDbPolyline
 90
        2
 70
     0
 43
0.0005
 10
2.8768014
 20
0.4935566
 42
-0.0552390000000003
 10
2.8282879
 20
0.4567809
  0
LWPOLYLINE
  5
C2
330
1F
100
AcDbEntity
  8
Mechanical 1
100
AcDbPolyline
 90
        2
 70
     1
 43
0.00025
 10
2.8766764
 20
0.4935566
 42
1.0
 10
2.8769264
 20
0.4935566
 42
1.0
  0
LWPOLYLINE
  5
C3
330
1F
100
AcDbEntity
  8
Mechanical 1
100
AcDbPolyline
 90
        2
 70
     1
 43
0.00025
 10
2.8281629
 20
0.4567809
 42
1.0
 10
2.8284129
 20
0.4567809
 42
1.0
  0
LWPOLYLINE
  5
C4
330
1F
100
AcDbEntity
  8
Mechanical 1
100
AcDbPolyline
 90
        2
 70
     0
 43
0.0005
 10
2.8282879
 20
0.4567809
 42
-0.0612810000000001
 10
2.7745156
 20
0.4330343
  0
LWPOLYLINE
  5
C5
330
1F
100
AcDbEntity
  8
Mechanical 1
100
AcDbPolyline
 90
        2
 70
     1
 43
0.00025
 10
2.8281629
 20
0.4567809
 42
1.0
 10
2.8284129
 20
0.4567809
 42
1.0
  0
LWPOLYLINE
  5
C6
330
1F
100
AcDbEntity
  8
Mechanical 1
100
AcDbPolyline
 90
        2
 70
     1
 43
0.00025
 10
2.7743906
 20
0.4330343
 42
1.0
 10
2.7746406
 20
0.4330343
 42
1.0
  0
LWPOLYLINE
  5
C7
330
1F
100
AcDbEntity
  8
Mechanical 1
100
AcDbPolyline
 90
        2
 70
     0
 43
0.0005
 10
2.7745156
 20
0.4330343
 42
-0.049747
 10
2.7077184
 20
0.419908
  0
LWPOLYLINE
  5
C8
330
1F
100
AcDbEntity
  8
Mechanical 1
100
AcDbPolyline
 90
        2
 70
     1
 43
0.00025
 10
2.7743906
 20
0.4330343
 42
1.0
 10
2.7746406
 20
0.4330343
 42
1.0
  0
LWPOLYLINE
  5
C9
330
1F
100
AcDbEntity
  8
Mechanical 1
100
AcDbPolyline
 90
        2
 70
     1
 43
0.00025
 10
2.7075934
 20
0.419908
 42
1.0
 10
2.7078434
 20
0.419908
 42
1.0
  0
LWPOLYLINE
  5
CA
330
1F
100
AcDbEntity
  8
Mechanical 1
100
AcDbPolyline
 90
        2
 70
     0
 43
0.0005
 10
2.7077184
 20
0.419908
 42
-0.0222989999999999
 10
2.6182436
 20
0.4154274
  0
LWPOLYLINE
  5
CB
330
1F
100
AcDbEntity
  8
Mechanical 1
100
AcDbPolyline
 90
        2
 70
     1
 43
0.00025
 10
2.7075934
 20
0.419908
 42
1.0
 10
2.7078434
 20
0.419908
 42
1.0
  0
LWPOLYLINE
  5
CC
330
1F
100
AcDbEntity
  8
Mechanical 1
100
AcDbPolyline
 90
        2
 70
     1
 43
0.00025
 10
2.6181186
 20
0.4154274
 42
1.0
 10
2.6183686
 20
0.4154274
 42
1.0
  0
LWPOLYLINE
  5
CD
330
1F
100
AcDbEntity
  8
Mechanical 1
100
AcDbPolyline
 90
        2
 70
     0
 43
0.0005
 10
2.6182436
 20
0.4154274
 42
-0.011325
 10
2.5150058
 20
0.417204
  0
LWPOLYLINE
  5
CE
330
1F
100
AcDbEntity
  8
Mechanical 1
100
AcDbPolyline
 90
        2
 70
     1
 43
0.00025
 10
2.6181186
 20
0.4154274
 42
1.0
 10
2.6183686
 20
0.4154274
 42
1.0
  0
LWPOLYLINE
  5
CF
330
1F
100
AcDbEntity
  8
Mechanical 1
100
AcDbPolyline
 90
        2
 70
     1
 43
0.00025
 10
2.5148808
 20
0.417204
 42
1.0
 10
2.5151308
 20
0.417204
 42
1.0
  0
LWPOLYLINE
  5
D0
330
1F
100
AcDbEntity
  8
Mechanical 1
100
AcDbPolyline
 90
        2
 70
     0
 43
0.0005
 10
2.5150058
 20
0.417204
 42
-0.034797
 10
2.445553
 20
0.4248342
  0
LWPOLYLINE
  5
D1
330
1F
100
AcDbEntity
  8
Mechanical 1
100
AcDbPolyline
 90
        2
 70
     1
 43
0.00025
 10
2.5148808
 20
0.417204
 42
1.0
 10
2.5151308
 20
0.417204
 42
1.0
  0
LWPOLYLINE
  5
D2
330
1F
100
AcDbEntity
  8
Mechanical 1
100
AcDbPolyline
 90
        2
 70
     1
 43
0.00025
 10
2.445428
 20
0.4248342
 42
1.0
 10
2.445678
 20
0.4248342
 42
1.0
  0
LWPOLYLINE
  5
D3
330
1F
100
AcDbEntity
  8
Mechanical 1
100
AcDbPolyline
 90
        2
 70
     0
 43
0.0005
 10
2.4455529
 20
0.4248342
 42
-0.0532230000000002
 10
2.3976996
 20
0.4388714
  0
LWPOLYLINE
  5
D4
330
1F
100
AcDbEntity
  8
Mechanical 1
100
AcDbPolyline
 90
        2
 70
     1
 43
0.00025
 10
2.4454279
 20
0.4248342
 42
1.0
 10
2.4456779
 20
0.4248342
 42
1.0
  0
LWPOLYLINE
  5
D5
330
1F
100
AcDbEntity
  8
Mechanical 1
100
AcDbPolyline
 90
        2
 70
     1
 43
0.00025
 10
2.3975746
 20
0.4388714
 42
1.0
 10
2.3978246
 20
0.4388714
 42
1.0
  0
LWPOLYLINE
  5
D6
330
1F
100
AcDbEntity
  8
Mechanical 1
100
AcDbPolyline
 90
        2
 70
     0
 43
0.0005
 10
2.3976996
 20
0.4388714
 42
-0.1079680000000002
 10
2.3656315
 20
0.4611311
  0
LWPOLYLINE
  5
D7
330
1F
100
AcDbEntity
  8
Mechanical 1
100
AcDbPolyline
 90
        2
 70
     1
 43
0.00025
 10
2.3975746
 20
0.4388714
 42
1.0
 10
2.3978246
 20
0.4388714
 42
1.0
  0
LWPOLYLINE
  5
D8
330
1F
100
AcDbEntity
  8
Mechanical 1
100
AcDbPolyline
 90
        2
 70
     1
 43
0.00025
 10
2.3655065
 20
0.4611311
 42
1.0
 10
2.3657565
 20
0.4611311
 42
1.0
  0
LWPOLYLINE
  5
D9
330
1F
100
AcDbEntity
  8
Mechanical 1
100
AcDbPolyline
 90
        2
 70
     0
 43
0.0005
 10
2.3656314
 20
0.4611311
 42
-0.08752
 10
2.3378792
 20
0.5040198
  0
LWPOLYLINE
  5
DA
330
1F
100
AcDbEntity
  8
Mechanical 1
100
AcDbPolyline
 90
        2
 70
     1
 43
0.00025
 10
2.3655064
 20
0.4611311
 42
1.0
 10
2.3657564
 20
0.4611311
 42
1.0
  0
LWPOLYLINE
  5
DB
330
1F
100
AcDbEntity
  8
Mechanical 1
100
AcDbPolyline
 90
        2
 70
     1
 43
0.00025
 10
2.3377542
 20
0.5040198
 42
1.0
 10
2.3380042
 20
0.5040198
 42
1.0
  0
LWPOLYLINE
  5
DC
330
1F
100
AcDbEntity
  8
Mechanical 1
100
AcDbPolyline
 90
        2
 70
     0
 43
0.0005
 10
2.3378792
 20
0.5040198
 42
-0.0232660000000002
 10
2.3095929
 20
0.5807478
  0
LWPOLYLINE
  5
DD
330
1F
100
AcDbEntity
  8
Mechanical 1
100
AcDbPolyline
 90
        2
 70
     1
 43
0.00025
 10
2.3377542
 20
0.5040198
 42
1.0
 10
2.3380042
 20
0.5040198
 42
1.0
  0
LWPOLYLINE
  5
DE
330
1F
100
AcDbEntity
  8
Mechanical 1
100
AcDbPolyline
 90
        2
 70
     1
 43
0.00025
 10
2.3094679
 20
0.5807478
 42
1.0
 10
2.3097179
 20
0.5807478
 42
1.0
  0
LWPOLYLINE
  5
DF
330
1F
100
AcDbEntity
  8
Mechanical 1
100
AcDbPolyline
 90
        2
 70
     0
 43
0.0005
 10
2.3095931
 20
0.5807478
 42
-0.021048
 10
2.2830409
 20
0.6787504
  0
LWPOLYLINE
  5
E0
330
1F
100
AcDbEntity
  8
Mechanical 1
100
AcDbPolyline
 90
        2
 70
     1
 43
0.00025
 10
2.3094681
 20
0.5807478
 42
1.0
 10
2.3097181
 20
0.5807478
 42
1.0
  0
LWPOLYLINE
  5
E1
330
1F
100
AcDbEntity
  8
Mechanical 1
100
AcDbPolyline
 90
        2
 70
     1
 43
0.00025
 10
2.2829159
 20
0.6787504
 42
1.0
 10
2.2831659
 20
0.6787504
 42
1.0
  0
LWPOLYLINE
  5
E2
330
1F
100
AcDbEntity
  8
Mechanical 1
100
AcDbPolyline
 90
        2
 70
     0
 43
0.0005
 10
2.2830409
 20
0.6787505
 42
-0.013921
 10
2.2604767
 20
0.7932034
  0
LWPOLYLINE
  5
E3
330
1F
100
AcDbEntity
  8
Mechanical 1
100
AcDbPolyline
 90
        2
 70
     1
 43
0.00025
 10
2.2829159
 20
0.6787505
 42
1.0
 10
2.2831659
 20
0.6787505
 42
1.0
  0
LWPOLYLINE
  5
E4
330
1F
100
AcDbEntity
  8
Mechanical 1
100
AcDbPolyline
 90
        2
 70
     1
 43
0.00025
 10
2.2603517
 20
0.7932034
 42
1.0
 10
2.2606017
 20
0.7932034
 42
1.0
  0
LWPOLYLINE
  5
E5
330
1F
100
AcDbEntity
  8
Mechanical 1
100
AcDbPolyline
 90
        2
 70
     0
 43
0.0005
 10
2.2412557
 20
0.8906766
 42
-0.013942
 10
2.2604767
 20
0.7932033
  0
LWPOLYLINE
  5
E6
330
1F
100
AcDbEntity
  8
Mechanical 1
100
AcDbPolyline
 90
        2
 70
     1
 43
0.00025
 10
2.2411307
 20
0.8906766
 42
1.0
 10
2.2413807
 20
0.8906766
 42
1.0
  0
LWPOLYLINE
  5
E7
330
1F
100
AcDbEntity
  8
Mechanical 1
100
AcDbPolyline
 90
        2
 70
     1
 43
0.00025
 10
2.2603517
 20
0.7932033
 42
1.0
 10
2.2606017
 20
0.7932033
 42
1.0
  0
LWPOLYLINE
  5
E8
330
1F
100
AcDbEntity
  8
Mechanical 1
100
AcDbPolyline
 90
        2
 70
     0
 43
0.0005
 10
2.2216799
 20
0.9317611
 42
-0.111496
 10
2.2412556
 20
0.8906766
  0
LWPOLYLINE
  5
E9
330
1F
100
AcDbEntity
  8
Mechanical 1
100
AcDbPolyline
 90
        2
 70
     1
 43
0.00025
 10
2.2215549
 20
0.9317611
 42
1.0
 10
2.2218049
 20
0.9317611
 42
1.0
  0
LWPOLYLINE
  5
EA
330
1F
100
AcDbEntity
  8
Mechanical 1
100
AcDbPolyline
 90
        2
 70
     1
 43
0.00025
 10
2.2411306
 20
0.8906766
 42
1.0
 10
2.2413806
 20
0.8906766
 42
1.0
  0
LWPOLYLINE
  5
EB
330
1F
100
AcDbEntity
  8
Mechanical 1
100
AcDbPolyline
 90
        2
 70
     0
 43
0.0005
 10
2.1919463
 20
0.9476575
 42
-0.2095409999999998
 10
2.2216799
 20
0.9317611
  0
LWPOLYLINE
  5
EC
330
1F
100
AcDbEntity
  8
Mechanical 1
100
AcDbPolyline
 90
        2
 70
     1
 43
0.00025
 10
2.1918213
 20
0.9476575
 42
1.0
 10
2.1920713
 20
0.9476575
 42
1.0
  0
LWPOLYLINE
  5
ED
330
1F
100
AcDbEntity
  8
Mechanical 1
100
AcDbPolyline
 90
        2
 70
     1
 43
0.00025
 10
2.2215549
 20
0.9317611
 42
1.0
 10
2.2218049
 20
0.9317611
 42
1.0
  0
LWPOLYLINE
  5
EE
330
1F
100
AcDbEntity
  8
Mechanical 1
100
AcDbPolyline
 90
        2
 70
     0
 43
0.0005
 10
2.141315
 20
0.9446279
 42
-0.068923
 10
2.1919463
 20
0.9476576
  0
LWPOLYLINE
  5
EF
330
1F
100
AcDbEntity
  8
Mechanical 1
100
AcDbPolyline
 90
        2
 70
     1
 43
0.00025
 10
2.14119
 20
0.9446279
 42
1.0
 10
2.14144
 20
0.9446279
 42
1.0
  0
LWPOLYLINE
  5
F0
330
1F
100
AcDbEntity
  8
Mechanical 1
100
AcDbPolyline
 90
        2
 70
     1
 43
0.00025
 10
2.1918213
 20
0.9476576
 42
1.0
 10
2.1920713
 20
0.9476576
 42
1.0
  0
LWPOLYLINE
  5
F1
330
1F
100
AcDbEntity
  8
Mechanical 1
100
AcDbPolyline
 90
        2
 70
     0
 43
0.0005
 10
2.114204
 20
0.9304533
 42
-0.1431390000000003
 10
2.141315
 20
0.9446277
  0
LWPOLYLINE
  5
F2
330
1F
100
AcDbEntity
  8
Mechanical 1
100
AcDbPolyline
 90
        2
 70
     1
 43
0.00025
 10
2.114079
 20
0.9304533
 42
1.0
 10
2.114329
 20
0.9304533
 42
1.0
  0
LWPOLYLINE
  5
F3
330
1F
100
AcDbEntity
  8
Mechanical 1
100
AcDbPolyline
 90
        2
 70
     1
 43
0.00025
 10
2.14119
 20
0.9446277
 42
1.0
 10
2.14144
 20
0.9446277
 42
1.0
  0
LWPOLYLINE
  5
F4
330
1F
100
AcDbEntity
  8
Mechanical 1
100
AcDbPolyline
 90
        2
 70
     0
 43
0.0005
 10
2.0991878
 20
0.9039882
 42
-0.1453120000000004
 10
2.114204
 20
0.9304533
  0
LWPOLYLINE
  5
F5
330
1F
100
AcDbEntity
  8
Mechanical 1
100
AcDbPolyline
 90
        2
 70
     1
 43
0.00025
 10
2.0990628
 20
0.9039882
 42
1.0
 10
2.0993128
 20
0.9039882
 42
1.0
  0
LWPOLYLINE
  5
F6
330
1F
100
AcDbEntity
  8
Mechanical 1
100
AcDbPolyline
 90
        2
 70
     1
 43
0.00025
 10
2.114079
 20
0.9304533
 42
1.0
 10
2.114329
 20
0.9304533
 42
1.0
  0
LWPOLYLINE
  5
F7
330
1F
100
AcDbEntity
  8
Mechanical 1
100
AcDbPolyline
 90
        2
 70
     0
 43
0.0005
 10
2.0907894
 20
0.8481867
 42
-0.039077
 10
2.0991878
 20
0.9039883
  0
LWPOLYLINE
  5
F8
330
1F
100
AcDbEntity
  8
Mechanical 1
100
AcDbPolyline
 90
        2
 70
     1
 43
0.00025
 10
2.0906644
 20
0.8481867
 42
1.0
 10
2.0909144
 20
0.8481867
 42
1.0
  0
LWPOLYLINE
  5
F9
330
1F
100
AcDbEntity
  8
Mechanical 1
100
AcDbPolyline
 90
        2
 70
     1
 43
0.00025
 10
2.0990628
 20
0.9039883
 42
1.0
 10
2.0993128
 20
0.9039883
 42
1.0
  0
LWPOLYLINE
  5
FA
330
1F
100
AcDbEntity
  8
Mechanical 1
100
AcDbPolyline
 90
        2
 70
     0
 43
0.0005
 10
2.0793599
 20
0.6770098
 42
-0.0022989999999999
 10
2.0907894
 20
0.8481867
  0
LWPOLYLINE
  5
FB
330
1F
100
AcDbEntity
  8
Mechanical 1
100
AcDbPolyline
 90
        2
 70
     1
 43
0.00025
 10
2.0792349
 20
0.6770098
 42
1.0
 10
2.0794849
 20
0.6770098
 42
1.0
  0
LWPOLYLINE
  5
FC
330
1F
100
AcDbEntity
  8
Mechanical 1
100
AcDbPolyline
 90
        2
 70
     1
 43
0.00025
 10
2.0906644
 20
0.8481867
 42
1.0
 10
2.0909144
 20
0.8481867
 42
1.0
  0
LWPOLYLINE
  5
FD
330
1F
100
AcDbEntity
  8
Mechanical 1
100
AcDbPolyline
 90
        2
 70
     0
 43
0.0005
 10
2.0793599
 20
0.6770098
 42
-0.0043720000000002
 10
2.0717222
 20
0.5693382
  0
LWPOLYLINE
  5
FE
330
1F
100
AcDbEntity
  8
Mechanical 1
100
AcDbPolyline
 90
        2
 70
     1
 43
0.00025
 10
2.0792349
 20
0.6770098
 42
1.0
 10
2.0794849
 20
0.6770098
 42
1.0
  0
LWPOLYLINE
  5
FF
330
1F
100
AcDbEntity
  8
Mechanical 1
100
AcDbPolyline
 90
        2
 70
     1
 43
0.00025
 10
2.0715972
 20
0.5693382
 42
1.0
 10
2.0718472
 20
0.5693382
 42
1.0
  0
LWPOLYLINE
  5
100
330
1F
100
AcDbEntity
  8
Mechanical 1
100
AcDbPolyline
 90
        2
 70
     0
 43
0.0005
 10
2.0717222
 20
0.5693382
 42
-0.0313709999999998
 10
2.0643352
 20
0.5177709
  0
LWPOLYLINE
  5
101
330
1F
100
AcDbEntity
  8
Mechanical 1
100
AcDbPolyline
 90
        2
 70
     1
 43
0.00025
 10
2.0715972
 20
0.5693382
 42
1.0
 10
2.0718472
 20
0.5693382
 42
1.0
  0
LWPOLYLINE
  5
102
330
1F
100
AcDbEntity
  8
Mechanical 1
100
AcDbPolyline
 90
        2
 70
     1
 43
0.00025
 10
2.0642102
 20
0.5177709
 42
1.0
 10
2.0644602
 20
0.5177709
 42
1.0
  0
LWPOLYLINE
  5
103
330
1F
100
AcDbEntity
  8
Mechanical 1
100
AcDbPolyline
 90
        2
 70
     0
 43
0.0005
 10
2.0643351
 20
0.5177709
 42
-0.058976
 10
2.0523921
 20
0.4820692
  0
LWPOLYLINE
  5
104
330
1F
100
AcDbEntity
  8
Mechanical 1
100
AcDbPolyline
 90
        2
 70
     1
 43
0.00025
 10
2.0642101
 20
0.5177709
 42
1.0
 10
2.0644601
 20
0.5177709
 42
1.0
  0
LWPOLYLINE
  5
105
330
1F
100
AcDbEntity
  8
Mechanical 1
100
AcDbPolyline
 90
        2
 70
     1
 43
0.00025
 10
2.0522671
 20
0.4820692
 42
1.0
 10
2.0525171
 20
0.4820692
 42
1.0
  0
LWPOLYLINE
  5
106
330
1F
100
AcDbEntity
  8
Mechanical 1
100
AcDbPolyline
 90
        2
 70
     0
 43
0.0005
 10
2.0523922
 20
0.4820692
 42
-0.0413680000000001
 10
2.0311847
 20
0.4453135
  0
LWPOLYLINE
  5
107
330
1F
100
AcDbEntity
  8
Mechanical 1
100
AcDbPolyline
 90
        2
 70
     1
 43
0.00025
 10
2.0522672
 20
0.4820692
 42
1.0
 10
2.0525172
 20
0.4820692
 42
1.0
  0
LWPOLYLINE
  5
108
330
1F
100
AcDbEntity
  8
Mechanical 1
100
AcDbPolyline
 90
        2
 70
     1
 43
0.00025
 10
2.0310597
 20
0.4453135
 42
1.0
 10
2.0313097
 20
0.4453135
 42
1.0
  0
LWPOLYLINE
  5
109
330
1F
100
AcDbEntity
  8
Mechanical 1
100
AcDbPolyline
 90
        2
 70
     0
 43
0.0005
 10
2.0311847
 20
0.4453135
 42
-0.080257
 10
1.9673212
 20
0.3789474
  0
LWPOLYLINE
  5
10A
330
1F
100
AcDbEntity
  8
Mechanical 1
100
AcDbPolyline
 90
        2
 70
     1
 43
0.00025
 10
2.0310597
 20
0.4453135
 42
1.0
 10
2.0313097
 20
0.4453135
 42
1.0
  0
LWPOLYLINE
  5
10B
330
1F
100
AcDbEntity
  8
Mechanical 1
100
AcDbPolyline
 90
        2
 70
     1
 43
0.00025
 10
1.9671962
 20
0.3789474
 42
1.0
 10
1.9674462
 20
0.3789474
 42
1.0
  0
LWPOLYLINE
  5
10C
330
1F
100
AcDbEntity
  8
Mechanical 1
100
AcDbPolyline
 90
        2
 70
     0
 43
0.0005
 10
1.9673211
 20
0.3789473
 42
-0.0476190000000001
 10
1.8734569
 20
0.3214923
  0
LWPOLYLINE
  5
10D
330
1F
100
AcDbEntity
  8
Mechanical 1
100
AcDbPolyline
 90
        2
 70
     1
 43
0.00025
 10
1.9671961
 20
0.3789473
 42
1.0
 10
1.9674461
 20
0.3789473
 42
1.0
  0
LWPOLYLINE
  5
10E
330
1F
100
AcDbEntity
  8
Mechanical 1
100
AcDbPolyline
 90
        2
 70
     1
 43
0.00025
 10
1.8733319
 20
0.3214923
 42
1.0
 10
1.8735819
 20
0.3214923
 42
1.0
  0
LWPOLYLINE
  5
10F
330
1F
100
AcDbEntity
  8
Mechanical 1
100
AcDbPolyline
 90
        2
 70
     0
 43
0.0005
 10
1.873457
 20
0.3214923
 42
-0.0470770000000001
 10
1.7685458
 20
0.2820006
  0
LWPOLYLINE
  5
110
330
1F
100
AcDbEntity
  8
Mechanical 1
100
AcDbPolyline
 90
        2
 70
     1
 43
0.00025
 10
1.873332
 20
0.3214923
 42
1.0
 10
1.873582
 20
0.3214923
 42
1.0
  0
LWPOLYLINE
  5
111
330
1F
100
AcDbEntity
  8
Mechanical 1
100
AcDbPolyline
 90
        2
 70
     1
 43
0.00025
 10
1.7684208
 20
0.2820006
 42
1.0
 10
1.7686708
 20
0.2820006
 42
1.0
  0
LWPOLYLINE
  5
112
330
1F
100
AcDbEntity
  8
Mechanical 1
100
AcDbPolyline
 90
        2
 70
     0
 43
0.0005
 10
1.7685458
 20
0.2820006
 42
-0.0696360000000001
 10
1.671168
 20
0.2695776
  0
LWPOLYLINE
  5
113
330
1F
100
AcDbEntity
  8
Mechanical 1
100
AcDbPolyline
 90
        2
 70
     1
 43
0.00025
 10
1.7684208
 20
0.2820006
 42
1.0
 10
1.7686708
 20
0.2820006
 42
1.0
  0
LWPOLYLINE
  5
114
330
1F
100
AcDbEntity
  8
Mechanical 1
100
AcDbPolyline
 90
        2
 70
     1
 43
0.00025
 10
1.671043
 20
0.2695776
 42
1.0
 10
1.671293
 20
0.2695776
 42
1.0
  0
LWPOLYLINE
  5
115
330
1F
100
AcDbEntity
  8
Mechanical 1
100
AcDbPolyline
 90
        2
 70
     0
 43
0.0005
 10
1.671168
 20
0.2695776
 42
-0.050247
 10
1.5507104
 20
0.2831948
  0
LWPOLYLINE
  5
116
330
1F
100
AcDbEntity
  8
Mechanical 1
100
AcDbPolyline
 90
        2
 70
     1
 43
0.00025
 10
1.671043
 20
0.2695776
 42
1.0
 10
1.671293
 20
0.2695776
 42
1.0
  0
LWPOLYLINE
  5
117
330
1F
100
AcDbEntity
  8
Mechanical 1
100
AcDbPolyline
 90
        2
 70
     1
 43
0.00025
 10
1.5505854
 20
0.2831948
 42
1.0
 10
1.5508354
 20
0.2831948
 42
1.0
  0
LWPOLYLINE
  5
118
330
1F
100
AcDbEntity
  8
Mechanical 1
100
AcDbPolyline
 90
        2
 70
     0
 43
0.0005
 10
1.5507104
 20
0.2831949
 42
-0.0382730000000001
 10
1.423389
 20
0.3211179
  0
LWPOLYLINE
  5
119
330
1F
100
AcDbEntity
  8
Mechanical 1
100
AcDbPolyline
 90
        2
 70
     1
 43
0.00025
 10
1.5505854
 20
0.2831949
 42
1.0
 10
1.5508354
 20
0.2831949
 42
1.0
  0
LWPOLYLINE
  5
11A
330
1F
100
AcDbEntity
  8
Mechanical 1
100
AcDbPolyline
 90
        2
 70
     1
 43
0.00025
 10
1.423264
 20
0.3211179
 42
1.0
 10
1.423514
 20
0.3211179
 42
1.0
  0
LWPOLYLINE
  5
11B
330
1F
100
AcDbEntity
  8
Mechanical 1
100
AcDbPolyline
 90
        2
 70
     0
 43
0.0005
 10
1.423389
 20
0.3211179
 42
-0.0379890000000001
 10
1.3160728
 20
0.3718945
  0
LWPOLYLINE
  5
11C
330
1F
100
AcDbEntity
  8
Mechanical 1
100
AcDbPolyline
 90
        2
 70
     1
 43
0.00025
 10
1.423264
 20
0.3211179
 42
1.0
 10
1.423514
 20
0.3211179
 42
1.0
  0
LWPOLYLINE
  5
11D
330
1F
100
AcDbEntity
  8
Mechanical 1
100
AcDbPolyline
 90
        2
 70
     1
 43
0.00025
 10
1.3159478
 20
0.3718945
 42
1.0
 10
1.3161978
 20
0.3718945
 42
1.0
  0
LWPOLYLINE
  5
11E
330
1F
100
AcDbEntity
  8
Mechanical 1
100
AcDbPolyline
 90
        2
 70
     0
 43
0.0005
 10
1.3160728
 20
0.3718945
 42
-0.1535949999999999
 10
1.2674184
 20
0.42432
  0
LWPOLYLINE
  5
11F
330
1F
100
AcDbEntity
  8
Mechanical 1
100
AcDbPolyline
 90
        2
 70
     1
 43
0.00025
 10
1.3159478
 20
0.3718945
 42
1.0
 10
1.3161978
 20
0.3718945
 42
1.0
  0
LWPOLYLINE
  5
120
330
1F
100
AcDbEntity
  8
Mechanical 1
100
AcDbPolyline
 90
        2
 70
     1
 43
0.00025
 10
1.2672934
 20
0.42432
 42
1.0
 10
1.2675434
 20
0.42432
 42
1.0
  0
LWPOLYLINE
  5
121
330
1F
100
AcDbEntity
  8
Mechanical 1
100
AcDbPolyline
 90
        2
 70
     0
 43
0.0005
 10
1.2674183
 20
0.42432
 42
-0.048812
 10
1.2445967
 20
0.487674
  0
LWPOLYLINE
  5
122
330
1F
100
AcDbEntity
  8
Mechanical 1
100
AcDbPolyline
 90
        2
 70
     1
 43
0.00025
 10
1.2672933
 20
0.42432
 42
1.0
 10
1.2675433
 20
0.42432
 42
1.0
  0
LWPOLYLINE
  5
123
330
1F
100
AcDbEntity
  8
Mechanical 1
100
AcDbPolyline
 90
        2
 70
     1
 43
0.00025
 10
1.2444717
 20
0.487674
 42
1.0
 10
1.2447217
 20
0.487674
 42
1.0
  0
LWPOLYLINE
  5
124
330
1F
100
AcDbEntity
  8
Mechanical 1
100
AcDbPolyline
 90
        2
 70
     0
 43
0.0005
 10
1.2445967
 20
0.487674
 42
-0.0220290000000001
 10
1.2266737
 20
0.5742406
  0
LWPOLYLINE
  5
125
330
1F
100
AcDbEntity
  8
Mechanical 1
100
AcDbPolyline
 90
        2
 70
     1
 43
0.00025
 10
1.2444717
 20
0.487674
 42
1.0
 10
1.2447217
 20
0.487674
 42
1.0
  0
LWPOLYLINE
  5
126
330
1F
100
AcDbEntity
  8
Mechanical 1
100
AcDbPolyline
 90
        2
 70
     1
 43
0.00025
 10
1.2265487
 20
0.5742406
 42
1.0
 10
1.2267987
 20
0.5742406
 42
1.0
  0
LWPOLYLINE
  5
127
330
1F
100
AcDbEntity
  8
Mechanical 1
100
AcDbPolyline
 90
        2
 70
     0
 43
0.0005
 10
1.2266737
 20
0.5742407
 42
-0.0193669999999999
 10
1.2140239
 20
0.6779462
  0
LWPOLYLINE
  5
128
330
1F
100
AcDbEntity
  8
Mechanical 1
100
AcDbPolyline
 90
        2
 70
     1
 43
0.00025
 10
1.2265487
 20
0.5742407
 42
1.0
 10
1.2267987
 20
0.5742407
 42
1.0
  0
LWPOLYLINE
  5
129
330
1F
100
AcDbEntity
  8
Mechanical 1
100
AcDbPolyline
 90
        2
 70
     1
 43
0.00025
 10
1.2138989
 20
0.6779462
 42
1.0
 10
1.2141489
 20
0.6779462
 42
1.0
  0
LWPOLYLINE
  5
12A
330
1F
100
AcDbEntity
  8
Mechanical 1
100
AcDbPolyline
 90
        2
 70
     0
 43
0.0005
 10
1.2140239
 20
0.6779461
 42
-0.0137360000000001
 10
1.2075591
 20
0.7949879
  0
LWPOLYLINE
  5
12B
330
1F
100
AcDbEntity
  8
Mechanical 1
100
AcDbPolyline
 90
        2
 70
     1
 43
0.00025
 10
1.2138989
 20
0.6779461
 42
1.0
 10
1.2141489
 20
0.6779461
 42
1.0
  0
LWPOLYLINE
  5
12C
330
1F
100
AcDbEntity
  8
Mechanical 1
100
AcDbPolyline
 90
        2
 70
     1
 43
0.00025
 10
1.2074341
 20
0.7949879
 42
1.0
 10
1.2076841
 20
0.7949879
 42
1.0
  0
LWPOLYLINE
  5
12D
330
1F
100
AcDbEntity
  8
Mechanical 1
100
AcDbPolyline
 90
        2
 70
     0
 43
0.0005
 10
1.2045636
 20
0.8696359
 42
-0.006199
 10
1.2075591
 20
0.7949879
  0
LWPOLYLINE
  5
12E
330
1F
100
AcDbEntity
  8
Mechanical 1
100
AcDbPolyline
 90
        2
 70
     1
 43
0.00025
 10
1.2044386
 20
0.8696359
 42
1.0
 10
1.2046886
 20
0.8696359
 42
1.0
  0
LWPOLYLINE
  5
12F
330
1F
100
AcDbEntity
  8
Mechanical 1
100
AcDbPolyline
 90
        2
 70
     1
 43
0.00025
 10
1.2074341
 20
0.7949879
 42
1.0
 10
1.2076841
 20
0.7949879
 42
1.0
  0
LWPOLYLINE
  5
130
330
1F
100
AcDbEntity
  8
Mechanical 1
100
AcDbPolyline
 90
        2
 70
     0
 43
0.0005
 10
1.2000047
 20
0.9219104
 42
-0.017243
 10
1.2045635
 20
0.8696359
  0
LWPOLYLINE
  5
131
330
1F
100
AcDbEntity
  8
Mechanical 1
100
AcDbPolyline
 90
        2
 70
     1
 43
0.00025
 10
1.1998797
 20
0.9219104
 42
1.0
 10
1.2001297
 20
0.9219104
 42
1.0
  0
LWPOLYLINE
  5
132
330
1F
100
AcDbEntity
  8
Mechanical 1
100
AcDbPolyline
 90
        2
 70
     1
 43
0.00025
 10
1.2044385
 20
0.8696359
 42
1.0
 10
1.2046885
 20
0.8696359
 42
1.0
  0
LWPOLYLINE
  5
133
330
1F
100
AcDbEntity
  8
Mechanical 1
100
AcDbPolyline
 90
        2
 70
     0
 43
0.0005
 10
1.1940773
 20
0.9582893
 42
-0.020026
 10
1.2000048
 20
0.9219104
  0
LWPOLYLINE
  5
134
330
1F
100
AcDbEntity
  8
Mechanical 1
100
AcDbPolyline
 90
        2
 70
     1
 43
0.00025
 10
1.1939523
 20
0.9582893
 42
1.0
 10
1.1942023
 20
0.9582893
 42
1.0
  0
LWPOLYLINE
  5
135
330
1F
100
AcDbEntity
  8
Mechanical 1
100
AcDbPolyline
 90
        2
 70
     1
 43
0.00025
 10
1.1998798
 20
0.9219104
 42
1.0
 10
1.2001298
 20
0.9219104
 42
1.0
  0
LWPOLYLINE
  5
136
330
1F
100
AcDbEntity
  8
Mechanical 1
100
AcDbPolyline
 90
        2
 70
     0
 43
0.0005
 10
1.1857937
 20
0.9732855
 42
-0.1527190000000007
 10
1.1940772
 20
0.9582893
  0
LWPOLYLINE
  5
137
330
1F
100
AcDbEntity
  8
Mechanical 1
100
AcDbPolyline
 90
        2
 70
     1
 43
0.00025
 10
1.1856687
 20
0.9732855
 42
1.0
 10
1.1859187
 20
0.9732855
 42
1.0
  0
LWPOLYLINE
  5
138
330
1F
100
AcDbEntity
  8
Mechanical 1
100
AcDbPolyline
 90
        2
 70
     1
 43
0.00025
 10
1.1939522
 20
0.9582893
 42
1.0
 10
1.1942022
 20
0.9582893
 42
1.0
  0
LWPOLYLINE
  5
139
330
1F
100
AcDbEntity
  8
Mechanical 1
100
AcDbPolyline
 90
        2
 70
     0
 43
0.0005
 10
1.1730168
 20
0.9806171
 42
-0.1216500000000003
 10
1.1857937
 20
0.9732856
  0
LWPOLYLINE
  5
13A
330
1F
100
AcDbEntity
  8
Mechanical 1
100
AcDbPolyline
 90
        2
 70
     1
 43
0.00025
 10
1.1728918
 20
0.9806171
 42
1.0
 10
1.1731418
 20
0.9806171
 42
1.0
  0
LWPOLYLINE
  5
13B
330
1F
100
AcDbEntity
  8
Mechanical 1
100
AcDbPolyline
 90
        2
 70
     1
 43
0.00025
 10
1.1856687
 20
0.9732856
 42
1.0
 10
1.1859187
 20
0.9732856
 42
1.0
  0
LWPOLYLINE
  5
13C
330
1F
100
AcDbEntity
  8
Mechanical 1
100
AcDbPolyline
 90
        2
 70
     0
 43
0.0005
 10
1.154513
 20
0.9835468
 42
-0.0609700000000001
 10
1.1730168
 20
0.980617
  0
LWPOLYLINE
  5
13D
330
1F
100
AcDbEntity
  8
Mechanical 1
100
AcDbPolyline
 90
        2
 70
     1
 43
0.00025
 10
1.154388
 20
0.9835468
 42
1.0
 10
1.154638
 20
0.9835468
 42
1.0
  0
LWPOLYLINE
  5
13E
330
1F
100
AcDbEntity
  8
Mechanical 1
100
AcDbPolyline
 90
        2
 70
     1
 43
0.00025
 10
1.1728918
 20
0.980617
 42
1.0
 10
1.1731418
 20
0.980617
 42
1.0
  0
LWPOLYLINE
  5
13F
330
1F
100
AcDbEntity
  8
Mechanical 1
100
AcDbPolyline
 90
        2
 70
     0
 43
0.0005
 10
1.1273365
 20
0.9824905
 42
-0.037062
 10
1.154513
 20
0.9835469
  0
LWPOLYLINE
  5
140
330
1F
100
AcDbEntity
  8
Mechanical 1
100
AcDbPolyline
 90
        2
 70
     1
 43
0.00025
 10
1.1272115
 20
0.9824905
 42
1.0
 10
1.1274615
 20
0.9824905
 42
1.0
  0
LWPOLYLINE
  5
141
330
1F
100
AcDbEntity
  8
Mechanical 1
100
AcDbPolyline
 90
        2
 70
     1
 43
0.00025
 10
1.154388
 20
0.9835469
 42
1.0
 10
1.154638
 20
0.9835469
 42
1.0
  0
LWPOLYLINE
  5
142
330
1F
100
AcDbEntity
  8
Mechanical 1
100
AcDbPolyline
 90
        2
 70
     0
 43
0.0005
 10
1.0852905
 20
0.9768288
 42
-0.010453
 10
1.1273365
 20
0.9824904
  0
LWPOLYLINE
  5
143
330
1F
100
AcDbEntity
  8
Mechanical 1
100
AcDbPolyline
 90
        2
 70
     1
 43
0.00025
 10
1.0851655
 20
0.9768288
 42
1.0
 10
1.0854155
 20
0.9768288
 42
1.0
  0
LWPOLYLINE
  5
144
330
1F
100
AcDbEntity
  8
Mechanical 1
100
AcDbPolyline
 90
        2
 70
     1
 43
0.00025
 10
1.1272115
 20
0.9824904
 42
1.0
 10
1.1274615
 20
0.9824904
 42
1.0
  0
LWPOLYLINE
  5
145
330
1F
100
AcDbEntity
  8
Mechanical 1
100
AcDbPolyline
 90
        2
 70
     0
 43
0.0005
 10
1.0852905
 20
0.9768288
 42
-0.0161000000000002
 10
1.0500657
 20
0.9724901
  0
LWPOLYLINE
  5
146
330
1F
100
AcDbEntity
  8
Mechanical 1
100
AcDbPolyline
 90
        2
 70
     1
 43
0.00025
 10
1.0851655
 20
0.9768288
 42
1.0
 10
1.0854155
 20
0.9768288
 42
1.0
  0
LWPOLYLINE
  5
147
330
1F
100
AcDbEntity
  8
Mechanical 1
100
AcDbPolyline
 90
        2
 70
     1
 43
0.00025
 10
1.0499407
 20
0.9724901
 42
1.0
 10
1.0501907
 20
0.9724901
 42
1.0
  0
LWPOLYLINE
  5
148
330
1F
100
AcDbEntity
  8
Mechanical 1
100
AcDbPolyline
 90
        2
 70
     0
 43
0.0005
 10
1.0500657
 20
0.9724901
 42
-0.014108
 10
1.0130467
 20
0.9701867
  0
LWPOLYLINE
  5
149
330
1F
100
AcDbEntity
  8
Mechanical 1
100
AcDbPolyline
 90
        2
 70
     1
 43
0.00025
 10
1.0499407
 20
0.9724901
 42
1.0
 10
1.0501907
 20
0.9724901
 42
1.0
  0
LWPOLYLINE
  5
14A
330
1F
100
AcDbEntity
  8
Mechanical 1
100
AcDbPolyline
 90
        2
 70
     1
 43
0.00025
 10
1.0129217
 20
0.9701867
 42
1.0
 10
1.0131717
 20
0.9701867
 42
1.0
  0
LWPOLYLINE
  5
14B
330
1F
100
AcDbEntity
  8
Mechanical 1
100
AcDbPolyline
 90
        2
 70
     0
 43
0.0005
 10
1.0130468
 20
0.9701867
 42
-0.0143219999999999
 10
0.979492
 20
0.9700093
  0
LWPOLYLINE
  5
14C
330
1F
100
AcDbEntity
  8
Mechanical 1
100
AcDbPolyline
 90
        2
 70
     1
 43
0.00025
 10
1.0129218
 20
0.9701867
 42
1.0
 10
1.0131718
 20
0.9701867
 42
1.0
  0
LWPOLYLINE
  5
14D
330
1F
100
AcDbEntity
  8
Mechanical 1
100
AcDbPolyline
 90
        2
 70
     1
 43
0.00025
 10
0.979367
 20
0.9700093
 42
1.0
 10
0.979617
 20
0.9700093
 42
1.0
  0
LWPOLYLINE
  5
14E
330
1F
100
AcDbEntity
  8
Mechanical 1
100
AcDbPolyline
 90
        2
 70
     0
 43
0.0005
 10
0.979492
 20
0.9700093
 42
-0.0405440000000001
 10
0.9562182
 20
0.972448
  0
LWPOLYLINE
  5
14F
330
1F
100
AcDbEntity
  8
Mechanical 1
100
AcDbPolyline
 90
        2
 70
     1
 43
0.00025
 10
0.979367
 20
0.9700093
 42
1.0
 10
0.979617
 20
0.9700093
 42
1.0
  0
LWPOLYLINE
  5
150
330
1F
100
AcDbEntity
  8
Mechanical 1
100
AcDbPolyline
 90
        2
 70
     1
 43
0.00025
 10
0.9560932
 20
0.972448
 42
1.0
 10
0.9563432
 20
0.972448
 42
1.0
  0
LWPOLYLINE
  5
151
330
1F
100
AcDbEntity
  8
Mechanical 1
100
AcDbPolyline
 90
        2
 70
     0
 43
0.0005
 10
0.9562182
 20
0.972448
 42
-0.1156100000000004
 10
0.9031119
 20
0.9958869
  0
LWPOLYLINE
  5
152
330
1F
100
AcDbEntity
  8
Mechanical 1
100
AcDbPolyline
 90
        2
 70
     1
 43
0.00025
 10
0.9560932
 20
0.972448
 42
1.0
 10
0.9563432
 20
0.972448
 42
1.0
  0
LWPOLYLINE
  5
153
330
1F
100
AcDbEntity
  8
Mechanical 1
100
AcDbPolyline
 90
        2
 70
     1
 43
0.00025
 10
0.9029869
 20
0.9958869
 42
1.0
 10
0.9032369
 20
0.9958869
 42
1.0
  0
LWPOLYLINE
  5
154
330
1F
100
AcDbEntity
  8
Mechanical 1
100
AcDbPolyline
 90
        2
 70
     0
 43
0.0005
 10
0.9031119
 20
0.9958869
 42
-0.039774
 10
0.8398582
 20
1.0519659
  0
LWPOLYLINE
  5
155
330
1F
100
AcDbEntity
  8
Mechanical 1
100
AcDbPolyline
 90
        2
 70
     1
 43
0.00025
 10
0.9029869
 20
0.9958869
 42
1.0
 10
0.9032369
 20
0.9958869
 42
1.0
  0
LWPOLYLINE
  5
156
330
1F
100
AcDbEntity
  8
Mechanical 1
100
AcDbPolyline
 90
        2
 70
     1
 43
0.00025
 10
0.8397332
 20
1.0519659
 42
1.0
 10
0.8399832
 20
1.0519659
 42
1.0
  0
LWPOLYLINE
  5
157
330
1F
100
AcDbEntity
  8
Mechanical 1
100
AcDbPolyline
 90
        2
 70
     0
 43
0.0005
 10
0.8398583
 20
1.0519659
 42
-0.037663
 10
0.7786528
 20
1.1260256
  0
LWPOLYLINE
  5
158
330
1F
100
AcDbEntity
  8
Mechanical 1
100
AcDbPolyline
 90
        2
 70
     1
 43
0.00025
 10
0.8397333
 20
1.0519659
 42
1.0
 10
0.8399833
 20
1.0519659
 42
1.0
  0
LWPOLYLINE
  5
159
330
1F
100
AcDbEntity
  8
Mechanical 1
100
AcDbPolyline
 90
        2
 70
     1
 43
0.00025
 10
0.7785278
 20
1.1260256
 42
1.0
 10
0.7787778
 20
1.1260256
 42
1.0
  0
LWPOLYLINE
  5
15A
330
1F
100
AcDbEntity
  8
Mechanical 1
100
AcDbPolyline
 90
        2
 70
     0
 43
0.0005
 10
0.7786526
 20
1.1260255
 42
-0.0394350000000001
 10
0.7302921
 20
1.2073407
  0
LWPOLYLINE
  5
15B
330
1F
100
AcDbEntity
  8
Mechanical 1
100
AcDbPolyline
 90
        2
 70
     1
 43
0.00025
 10
0.7785276
 20
1.1260255
 42
1.0
 10
0.7787776
 20
1.1260255
 42
1.0
  0
LWPOLYLINE
  5
15C
330
1F
100
AcDbEntity
  8
Mechanical 1
100
AcDbPolyline
 90
        2
 70
     1
 43
0.00025
 10
0.7301671
 20
1.2073407
 42
1.0
 10
0.7304171
 20
1.2073407
 42
1.0
  0
LWPOLYLINE
  5
15D
330
1F
100
AcDbEntity
  8
Mechanical 1
100
AcDbPolyline
 90
        2
 70
     0
 43
0.0005
 10
0.6812273
 20
1.6055488
 42
-0.009669
 10
0.6832148
 20
1.9589822
  0
LWPOLYLINE
  5
15E
330
1F
100
AcDbEntity
  8
Mechanical 1
100
AcDbPolyline
 90
        2
 70
     1
 43
0.00025
 10
0.6811023
 20
1.6055488
 42
1.0
 10
0.6813523
 20
1.6055488
 42
1.0
  0
LWPOLYLINE
  5
15F
330
1F
100
AcDbEntity
  8
Mechanical 1
100
AcDbPolyline
 90
        2
 70
     1
 43
0.00025
 10
0.6830898
 20
1.9589822
 42
1.0
 10
0.6833398
 20
1.9589822
 42
1.0
  0
LWPOLYLINE
  5
160
330
1F
100
AcDbEntity
  8
Mechanical 1
100
AcDbPolyline
 90
        2
 70
     0
 43
0.0005
 10
0.6832148
 20
1.9589822
 42
-0.0169340000000001
 10
0.7004151
 20
2.2510435
  0
LWPOLYLINE
  5
161
330
1F
100
AcDbEntity
  8
Mechanical 1
100
AcDbPolyline
 90
        2
 70
     1
 43
0.00025
 10
0.6830898
 20
1.9589822
 42
1.0
 10
0.6833398
 20
1.9589822
 42
1.0
  0
LWPOLYLINE
  5
162
330
1F
100
AcDbEntity
  8
Mechanical 1
100
AcDbPolyline
 90
        2
 70
     1
 43
0.00025
 10
0.7002901
 20
2.2510435
 42
1.0
 10
0.7005401
 20
2.2510435
 42
1.0
  0
LWPOLYLINE
  5
163
330
1F
100
AcDbEntity
  8
Mechanical 1
100
AcDbPolyline
 90
        2
 70
     0
 43
0.0005
 10
0.7004151
 20
2.2510435
 42
-0.01871
 10
0.7299934
 20
2.4771021
  0
LWPOLYLINE
  5
164
330
1F
100
AcDbEntity
  8
Mechanical 1
100
AcDbPolyline
 90
        2
 70
     1
 43
0.00025
 10
0.7002901
 20
2.2510435
 42
1.0
 10
0.7005401
 20
2.2510435
 42
1.0
  0
LWPOLYLINE
  5
165
330
1F
100
AcDbEntity
  8
Mechanical 1
100
AcDbPolyline
 90
        2
 70
     1
 43
0.00025
 10
0.7298684
 20
2.4771021
 42
1.0
 10
0.7301184
 20
2.4771021
 42
1.0
  0
LWPOLYLINE
  5
166
330
1F
100
AcDbEntity
  8
Mechanical 1
100
AcDbPolyline
 90
        2
 70
     0
 43
0.0005
 10
0.7299935
 20
2.4771021
 42
-0.0858979999999999
 10
0.7737933
 20
2.6013591
  0
LWPOLYLINE
  5
167
330
1F
100
AcDbEntity
  8
Mechanical 1
100
AcDbPolyline
 90
        2
 70
     1
 43
0.00025
 10
0.7298685
 20
2.4771021
 42
1.0
 10
0.7301185
 20
2.4771021
 42
1.0
  0
LWPOLYLINE
  5
168
330
1F
100
AcDbEntity
  8
Mechanical 1
100
AcDbPolyline
 90
        2
 70
     1
 43
0.00025
 10
0.7736683
 20
2.6013591
 42
1.0
 10
0.7739183
 20
2.6013591
 42
1.0
  0
LWPOLYLINE
  5
169
330
1F
100
AcDbEntity
  8
Mechanical 1
100
AcDbPolyline
 90
        2
 70
     0
 43
0.0005
 10
0.7737932
 20
2.6013591
 42
-0.1063360000000002
 10
0.8102043
 20
2.6426944
  0
LWPOLYLINE
  5
16A
330
1F
100
AcDbEntity
  8
Mechanical 1
100
AcDbPolyline
 90
        2
 70
     1
 43
0.00025
 10
0.7736682
 20
2.6013591
 42
1.0
 10
0.7739182
 20
2.6013591
 42
1.0
  0
LWPOLYLINE
  5
16B
330
1F
100
AcDbEntity
  8
Mechanical 1
100
AcDbPolyline
 90
        2
 70
     1
 43
0.00025
 10
0.8100793
 20
2.6426944
 42
1.0
 10
0.8103293
 20
2.6426944
 42
1.0
  0
LWPOLYLINE
  5
16C
330
1F
100
AcDbEntity
  8
Mechanical 1
100
AcDbPolyline
 90
        2
 70
     0
 43
0.0005
 10
0.8102043
 20
2.6426944
 42
-0.061892
 10
0.8680352
 20
2.675282
  0
LWPOLYLINE
  5
16D
330
1F
100
AcDbEntity
  8
Mechanical 1
100
AcDbPolyline
 90
        2
 70
     1
 43
0.00025
 10
0.8100793
 20
2.6426944
 42
1.0
 10
0.8103293
 20
2.6426944
 42
1.0
  0
LWPOLYLINE
  5
16E
330
1F
100
AcDbEntity
  8
Mechanical 1
100
AcDbPolyline
 90
        2
 70
     1
 43
0.00025
 10
0.8679102
 20
2.675282
 42
1.0
 10
0.8681602
 20
2.675282
 42
1.0
  0
LWPOLYLINE
  5
16F
330
1F
100
AcDbEntity
  8
Mechanical 1
100
AcDbPolyline
 90
        2
 70
     0
 43
0.0005
 10
0.8680352
 20
2.6752821
 42
-0.046133
 10
0.9491726
 20
2.7001428
  0
LWPOLYLINE
  5
170
330
1F
100
AcDbEntity
  8
Mechanical 1
100
AcDbPolyline
 90
        2
 70
     1
 43
0.00025
 10
0.8679102
 20
2.6752821
 42
1.0
 10
0.8681602
 20
2.6752821
 42
1.0
  0
LWPOLYLINE
  5
171
330
1F
100
AcDbEntity
  8
Mechanical 1
100
AcDbPolyline
 90
        2
 70
     1
 43
0.00025
 10
0.9490476
 20
2.7001428
 42
1.0
 10
0.9492976
 20
2.7001428
 42
1.0
  0
LWPOLYLINE
  5
172
330
1F
100
AcDbEntity
  8
Mechanical 1
100
AcDbPolyline
 90
        2
 70
     0
 43
0.0005
 10
0.9491726
 20
2.7001427
 42
-0.021726
 10
1.0574645
 20
2.7178046
  0
LWPOLYLINE
  5
173
330
1F
100
AcDbEntity
  8
Mechanical 1
100
AcDbPolyline
 90
        2
 70
     1
 43
0.00025
 10
0.9490476
 20
2.7001427
 42
1.0
 10
0.9492976
 20
2.7001427
 42
1.0
  0
LWPOLYLINE
  5
174
330
1F
100
AcDbEntity
  8
Mechanical 1
100
AcDbPolyline
 90
        2
 70
     1
 43
0.00025
 10
1.0573395
 20
2.7178046
 42
1.0
 10
1.0575895
 20
2.7178046
 42
1.0
  0
LWPOLYLINE
  5
175
330
1F
100
AcDbEntity
  8
Mechanical 1
100
AcDbPolyline
 90
        2
 70
     0
 43
0.0005
 10
1.1810564
 20
2.7338852
 42
-0.005579
 10
1.0574645
 20
2.7178046
  0
LWPOLYLINE
  5
176
330
1F
100
AcDbEntity
  8
Mechanical 1
100
AcDbPolyline
 90
        2
 70
     1
 43
0.00025
 10
1.1809314
 20
2.7338852
 42
1.0
 10
1.1811814
 20
2.7338852
 42
1.0
  0
LWPOLYLINE
  5
177
330
1F
100
AcDbEntity
  8
Mechanical 1
100
AcDbPolyline
 90
        2
 70
     1
 43
0.00025
 10
1.0573395
 20
2.7178046
 42
1.0
 10
1.0575895
 20
2.7178046
 42
1.0
  0
LWPOLYLINE
  5
178
330
1F
100
AcDbEntity
  8
Mechanical 1
100
AcDbPolyline
 90
        2
 70
     0
 43
0.0005
 10
1.2100519
 20
2.7478305
 42
-0.1551009999999995
 10
1.1810564
 20
2.7338852
  0
LWPOLYLINE
  5
179
330
1F
100
AcDbEntity
  8
Mechanical 1
100
AcDbPolyline
 90
        2
 70
     1
 43
0.00025
 10
1.2099269
 20
2.7478305
 42
1.0
 10
1.2101769
 20
2.7478305
 42
1.0
  0
LWPOLYLINE
  5
17A
330
1F
100
AcDbEntity
  8
Mechanical 1
100
AcDbPolyline
 90
        2
 70
     1
 43
0.00025
 10
1.1809314
 20
2.7338852
 42
1.0
 10
1.1811814
 20
2.7338852
 42
1.0
  0
LWPOLYLINE
  5
17B
330
1F
100
AcDbEntity
  8
Mechanical 1
100
AcDbPolyline
 90
        2
 70
     0
 43
0.0005
 10
1.2235101
 20
2.7754768
 42
-0.1828599999999994
 10
1.2100519
 20
2.7478305
  0
LWPOLYLINE
  5
17C
330
1F
100
AcDbEntity
  8
Mechanical 1
100
AcDbPolyline
 90
        2
 70
     1
 43
0.00025
 10
1.2233851
 20
2.7754768
 42
1.0
 10
1.2236351
 20
2.7754768
 42
1.0
  0
LWPOLYLINE
  5
17D
330
1F
100
AcDbEntity
  8
Mechanical 1
100
AcDbPolyline
 90
        2
 70
     1
 43
0.00025
 10
1.2099269
 20
2.7478305
 42
1.0
 10
1.2101769
 20
2.7478305
 42
1.0
  0
LWPOLYLINE
  5
17E
330
1F
100
AcDbEntity
  8
Mechanical 1
100
AcDbPolyline
 90
        2
 70
     0
 43
0.0005
 10
1.2314537
 20
2.8818665
 42
-0.008392
 10
1.2235102
 20
2.7754768
  0
LWPOLYLINE
  5
17F
330
1F
100
AcDbEntity
  8
Mechanical 1
100
AcDbPolyline
 90
        2
 70
     1
 43
0.00025
 10
1.2313287
 20
2.8818665
 42
1.0
 10
1.2315787
 20
2.8818665
 42
1.0
  0
LWPOLYLINE
  5
180
330
1F
100
AcDbEntity
  8
Mechanical 1
100
AcDbPolyline
 90
        2
 70
     1
 43
0.00025
 10
1.2233852
 20
2.7754768
 42
1.0
 10
1.2236352
 20
2.7754768
 42
1.0
  0
LWPOLYLINE
  5
181
330
1F
100
AcDbEntity
  8
Mechanical 1
100
AcDbPolyline
 90
        2
 70
     0
 43
0.0005
 10
1.2314537
 20
2.8818665
 42
-0.0317389999999999
 10
1.2518535
 20
3.0493574
  0
LWPOLYLINE
  5
182
330
1F
100
AcDbEntity
  8
Mechanical 1
100
AcDbPolyline
 90
        2
 70
     1
 43
0.00025
 10
1.2313287
 20
2.8818665
 42
1.0
 10
1.2315787
 20
2.8818665
 42
1.0
  0
LWPOLYLINE
  5
183
330
1F
100
AcDbEntity
  8
Mechanical 1
100
AcDbPolyline
 90
        2
 70
     1
 43
0.00025
 10
1.2517285
 20
3.0493574
 42
1.0
 10
1.2519785
 20
3.0493574
 42
1.0
  0
LWPOLYLINE
  5
184
330
1F
100
AcDbEntity
  8
Mechanical 1
100
AcDbPolyline
 90
        2
 70
     0
 43
0.0005
 10
1.2518533
 20
3.0493574
 42
-0.045948
 10
1.2925189
 20
3.1926688
  0
LWPOLYLINE
  5
185
330
1F
100
AcDbEntity
  8
Mechanical 1
100
AcDbPolyline
 90
        2
 70
     1
 43
0.00025
 10
1.2517283
 20
3.0493574
 42
1.0
 10
1.2519783
 20
3.0493574
 42
1.0
  0
LWPOLYLINE
  5
186
330
1F
100
AcDbEntity
  8
Mechanical 1
100
AcDbPolyline
 90
        2
 70
     1
 43
0.00025
 10
1.2923939
 20
3.1926688
 42
1.0
 10
1.2926439
 20
3.1926688
 42
1.0
  0
LWPOLYLINE
  5
187
330
1F
100
AcDbEntity
  8
Mechanical 1
100
AcDbPolyline
 90
        2
 70
     0
 43
0.0005
 10
1.292519
 20
3.1926688
 42
-0.049302
 10
1.355888
 20
3.3183998
  0
LWPOLYLINE
  5
188
330
1F
100
AcDbEntity
  8
Mechanical 1
100
AcDbPolyline
 90
        2
 70
     1
 43
0.00025
 10
1.292394
 20
3.1926688
 42
1.0
 10
1.292644
 20
3.1926688
 42
1.0
  0
LWPOLYLINE
  5
189
330
1F
100
AcDbEntity
  8
Mechanical 1
100
AcDbPolyline
 90
        2
 70
     1
 43
0.00025
 10
1.355763
 20
3.3183998
 42
1.0
 10
1.356013
 20
3.3183998
 42
1.0
  0
LWPOLYLINE
  5
18A
330
1F
100
AcDbEntity
  8
Mechanical 1
100
AcDbPolyline
 90
        2
 70
     0
 43
0.0005
 10
1.355888
 20
3.3183998
 42
-0.045414
 10
1.4441866
 20
3.4330834
  0
LWPOLYLINE
  5
18B
330
1F
100
AcDbEntity
  8
Mechanical 1
100
AcDbPolyline
 90
        2
 70
     1
 43
0.00025
 10
1.355763
 20
3.3183998
 42
1.0
 10
1.356013
 20
3.3183998
 42
1.0
  0
LWPOLYLINE
  5
18C
330
1F
100
AcDbEntity
  8
Mechanical 1
100
AcDbPolyline
 90
        2
 70
     1
 43
0.00025
 10
1.4440616
 20
3.4330834
 42
1.0
 10
1.4443116
 20
3.4330834
 42
1.0
  0
LWPOLYLINE
  5
18D
330
1F
100
AcDbEntity
  8
Mechanical 1
100
AcDbPolyline
 90
        2
 70
     0
 43
0.0005
 10
1.4441865
 20
3.4330834
 42
-0.035513
 10
1.5244828
 20
3.5083233
  0
LWPOLYLINE
  5
18E
330
1F
100
AcDbEntity
  8
Mechanical 1
100
AcDbPolyline
 90
        2
 70
     1
 43
0.00025
 10
1.4440615
 20
3.4330834
 42
1.0
 10
1.4443115
 20
3.4330834
 42
1.0
  0
LWPOLYLINE
  5
18F
330
1F
100
AcDbEntity
  8
Mechanical 1
100
AcDbPolyline
 90
        2
 70
     1
 43
0.00025
 10
1.5243578
 20
3.5083233
 42
1.0
 10
1.5246078
 20
3.5083233
 42
1.0
  0
LWPOLYLINE
  5
190
330
1F
100
AcDbEntity
  8
Mechanical 1
100
AcDbPolyline
 90
        2
 70
     0
 43
0.0005
 10
1.5244829
 20
3.5083232
 42
-0.047294
 10
1.607667
 20
3.563705
  0
LWPOLYLINE
  5
191
330
1F
100
AcDbEntity
  8
Mechanical 1
100
AcDbPolyline
 90
        2
 70
     1
 43
0.00025
 10
1.5243579
 20
3.5083232
 42
1.0
 10
1.5246079
 20
3.5083232
 42
1.0
  0
LWPOLYLINE
  5
192
330
1F
100
AcDbEntity
  8
Mechanical 1
100
AcDbPolyline
 90
        2
 70
     1
 43
0.00025
 10
1.607542
 20
3.563705
 42
1.0
 10
1.607792
 20
3.563705
 42
1.0
  0
LWPOLYLINE
  5
193
330
1F
100
AcDbEntity
  8
Mechanical 1
100
AcDbPolyline
 90
        2
 70
     0
 43
0.0005
 10
1.607667
 20
3.563705
 42
-0.047054
 10
1.7001198
 20
3.6026659
  0
LWPOLYLINE
  5
194
330
1F
100
AcDbEntity
  8
Mechanical 1
100
AcDbPolyline
 90
        2
 70
     1
 43
0.00025
 10
1.607542
 20
3.563705
 42
1.0
 10
1.607792
 20
3.563705
 42
1.0
  0
LWPOLYLINE
  5
195
330
1F
100
AcDbEntity
  8
Mechanical 1
100
AcDbPolyline
 90
        2
 70
     1
 43
0.00025
 10
1.6999948
 20
3.6026659
 42
1.0
 10
1.7002448
 20
3.6026659
 42
1.0
  0
LWPOLYLINE
  5
196
330
1F
100
AcDbEntity
  8
Mechanical 1
100
AcDbPolyline
 90
        2
 70
     0
 43
0.0005
 10
1.7001198
 20
3.6026659
 42
-0.034646
 10
1.808256
 20
3.6286166
  0
LWPOLYLINE
  5
197
330
1F
100
AcDbEntity
  8
Mechanical 1
100
AcDbPolyline
 90
        2
 70
     1
 43
0.00025
 10
1.6999948
 20
3.6026659
 42
1.0
 10
1.7002448
 20
3.6026659
 42
1.0
  0
LWPOLYLINE
  5
198
330
1F
100
AcDbEntity
  8
Mechanical 1
100
AcDbPolyline
 90
        2
 70
     1
 43
0.00025
 10
1.808131
 20
3.6286166
 42
1.0
 10
1.808381
 20
3.6286166
 42
1.0
  0
ENDSEC
  0
SECTION
  2
OBJECTS
  0
DICTIONARY
  5
C
330
0
100
AcDbDictionary
281
     1
  3
ACAD_DETAILVIEWSTYLE
350
1A0
  3
ACAD_GROUP
350
D
  3
ACAD_LAYOUT
350
1A
  3
ACAD_MATERIAL
350
43
  3
ACAD_MLEADERSTYLE
350
5B
  3
ACAD_MLINESTYLE
350
17
  3
ACAD_PLOTSETTINGS
350
19
  3
ACAD_PLOTSTYLENAME
350
E
  3
ACAD_SCALELIST
350
47
  3
ACAD_SECTIONVIEWSTYLE
350
1A1
  3
ACAD_TABLESTYLE
350
59
  3
ACAD_VISUALSTYLE
350
2A
  3
ACDB_RECOMPOSE_DATA
350
19D
  3
AcDbVariableDictionary
350
199
  0
SUN
  5
5D
330
29
100
AcDbSun
 90
        1
290
     0
 63
     7
421
 16777215
 40
1.0
291
     1
 91
  2455826
 92
 54000000
292
     0
 70
     2
 71
   256
280
     1
  0
DICTIONARY
  5
1A0
102
{ACAD_REACTORS
330
C
102
}
330
C
100
AcDbDictionary
281
     1
  0
DICTIONARY
  5
D
102
{ACAD_REACTORS
330
C
102
}
330
C
100
AcDbDictionary
281
     1
  0
DICTIONARY
  5
1A
102
{ACAD_REACTORS
330
C
102
}
330
C
100
AcDbDictionary
281
     1
  3
Layout1
350
1E
  3
Layout2
350
26
  3
Model
350
22
  0
DICTIONARY
  5
43
102
{ACAD_REACTORS
330
C
102
}
330
C
100
AcDbDictionary
281
     1
  3
ByBlock
350
45
  3
ByLayer
350
44
  3
Global
350
46
  0
DICTIONARY
  5
5B
102
{ACAD_REACTORS
330
C
102
}
330
C
100
AcDbDictionary
281
     1
  3
Standard
350
5C
  0
DICTIONARY
  5
17
102
{ACAD_REACTORS
330
C
102
}
330
C
100
AcDbDictionary
281
     1
  3
Standard
350
18
  0
DICTIONARY
  5
19
102
{ACAD_REACTORS
330
C
102
}
330
C
100
AcDbDictionary
281
     1
  0
ACDBDICTIONARYWDFLT
  5
E
102
{ACAD_REACTORS
330
C
102
}
330
C
100
AcDbDictionary
281
     1
  3
Normal
350
F
100
AcDbDictionaryWithDefault
340
F
  0
DICTIONARY
  5
47
102
{ACAD_REACTORS
330
C
102
}
330
C
100
AcDbDictionary
281
     1
  3
A0
350
48
  3
A1
350
49
  3
A2
350
4A
  3
A3
350
4B
  3
A4
350
4C
  3
A5
350
4D
  3
A6
350
4E
  3
A7
350
4F
  3
A8
350
50
  3
A9
350
51
  3
B1
350
52
  3
B2
350
53
  3
B3
350
54
  3
B4
350
55
  3
B5
350
56
  3
B6
350
57
  3
B7
350
58
  0
DICTIONARY
  5
1A1
102
{ACAD_REACTORS
330
C
102
}
330
C
100
AcDbDictionary
281
     1
  0
DICTIONARY
  5
59
102
{ACAD_REACTORS
330
C
102
}
330
C
100
AcDbDictionary
281
     1
  3
Standard
350
5A
  0
DICTIONARY
  5
2A
102
{ACAD_REACTORS
330
C
102
}
330
C
100
AcDbDictionary
281
     1
  3
2dWireframe
350
2F
  3
Basic
350
32
  3
Brighten
350
36
  3
ColorChange
350
3A
  3
Conceptual
350
34
  3
Dim
350
35
  3
EdgeColorOff
350
3D
  3
Facepattern
350
39
  3
Flat
350
2B
  3
FlatWithEdges
350
2C
  3
Gouraud
350
2D
  3
GouraudWithEdges
350
2E
  3
Hidden
350
31
  3
JitterOff
350
3B
  3
Linepattern
350
38
  3
OverhangOff
350
3C
  3
Realistic
350
33
  3
Shaded
350
42
  3
Shaded with edges
350
41
  3
Shades of Gray
350
3E
  3
Sketchy
350
3F
  3
Thicken
350
37
  3
Wireframe
350
30
  3
X-Ray
350
40
  0
XRECORD
  5
19D
102
{ACAD_REACTORS
330
C
102
}
330
C
100
AcDbXrecord
280
     1
 90
        1
330
5A
  0
DICTIONARY
  5
199
102
{ACAD_REACTORS
330
C
102
}
330
C
100
AcDbDictionary
281
     1
  3
CANNOSCALE
350
19A
  3
CMLEADERSTYLE
350
19F
  3
CTABLESTYLE
350
19E
  0
LAYOUT
  5
1E
102
{ACAD_REACTORS
330
1A
102
}
330
1A
100
AcDbPlotSettings
  1

  2
none_device
  4

  6

 40
0.0
 41
0.0
 42
0.0
 43
0.0
 44
0.0
 45
0.0
 46
0.0
 47
0.0
 48
0.0
 49
0.0
140
0.0
141
0.0
142
1.0
143
1.0
 70
   688
 72
     0
 73
     0
 74
     5
  7

 75
    16
 76
     0
 77
     2
 78
   300
147
1.0
148
0.0
149
0.0
100
AcDbLayout
  1
Layout1
 70
     1
 71
     1
 10
0.0
 20
0.0
 11
12.0
 21
9.0
 12
0.0
 22
0.0
 32
0.0
 14
1.000000000000000E+20
 24
1.000000000000000E+20
 34
1.000000000000000E+20
 15
-1.000000000000000E+20
 25
-1.000000000000000E+20
 35
-1.000000000000000E+20
146
0.0
 13
0.0
 23
0.0
 33
0.0
 16
1.0
 26
0.0
 36
0.0
 17
0.0
 27
1.0
 37
0.0
 76
     0
330
1B
  0
LAYOUT
  5
26
102
{ACAD_REACTORS
330
1A
102
}
330
1A
100
AcDbPlotSettings
  1

  2
none_device
  4

  6

 40
0.0
 41
0.0
 42
0.0
 43
0.0
 44
0.0
 45
0.0
 46
0.0
 47
0.0
 48
0.0
 49
0.0
140
0.0
141
0.0
142
1.0
143
1.0
 70
   688
 72
     0
 73
     0
 74
     5
  7

 75
    16
 76
     0
 77
     2
 78
   300
147
1.0
148
0.0
149
0.0
100
AcDbLayout
  1
Layout2
 70
     1
 71
     2
 10
0.0
 20
0.0
 11
0.0
 21
0.0
 12
0.0
 22
0.0
 32
0.0
 14
0.0
 24
0.0
 34
0.0
 15
0.0
 25
0.0
 35
0.0
146
0.0
 13
0.0
 23
0.0
 33
0.0
 16
1.0
 26
0.0
 36
0.0
 17
0.0
 27
1.0
 37
0.0
 76
     0
330
23
  0
LAYOUT
  5
22
102
{ACAD_REACTORS
330
1A
102
}
330
1A
100
AcDbPlotSettings
  1

  2
none_device
  4
Letter_(8.50_x_11.00_Inches)
  6

 40
6.35
 41
6.35
 42
6.35000508
 43
6.35000508
 44
215.9
 45
279.4
 46
0.0
 47
0.0
 48
0.0
 49
0.0
140
0.0
141
0.0
142
1.0
143
1.0
 70
  1712
 72
     0
 73
     0
 74
     0
  7

 75
     0
 76
     0
 77
     2
 78
   300
147
1.0
148
0.0
149
0.0
100
AcDbLayout
  1
Model
 70
     1
 71
     0
 10
0.2543298
 20
0.1379394
 11
3.2429213
 21
3.6409383
 12
0.0
 22
0.0
 32
0.0
 14
1.000000000000000E+20
 24
1.000000000000000E+20
 34
1.000000000000000E+20
 15
-1.000000000000000E+20
 25
-1.000000000000000E+20
 35
-1.000000000000000E+20
146
0.0
 13
0.0
 23
0.0
 33
0.0
 16
1.0
 26
0.0
 36
0.0
 17
0.0
 27
1.0
 37
0.0
 76
     0
330
1F
331
29
  0
MATERIAL
  5
45
102
{ACAD_REACTORS
330
43
102
}
330
43
100
AcDbMaterial
  1
ByBlock
 72
     1
 94
      127
  0
MATERIAL
  5
44
102
{ACAD_REACTORS
330
43
102
}
330
43
100
AcDbMaterial
  1
ByLayer
 72
     1
 94
      127
  0
MATERIAL
  5
46
102
{ACAD_REACTORS
330
43
102
}
330
43
100
AcDbMaterial
  1
Global
 72
     1
 94
      127
  0
MLEADERSTYLE
  5
5C
102
{ACAD_REACTORS
330
5B
102
}
330
5B
100
AcDbMLeaderStyle
179
     2
170
     2
171
     1
172
     0
 90
        2
 40
0.0
 41
0.0
173
     1
 91
-1056964608
340
14
 92
       -2
290
     1
 42
0.09
291
     1
 43
0.36
  3
Standard
341
0
 44
0.18
300

342
11
174
     1
178
     6
175
     1
176
     0
 93
-1056964608
 45
0.18
292
     0
297
     0
 46
0.18
343
0
 94
-1056964608
 47
1.0
 49
1.0
140
1.0
293
     1
141
0.0
294
     1
177
     0
142
1.0
295
     0
296
     0
143
0.125
271
     0
272
     9
273
     9
298
     0
  0
MLINESTYLE
  5
18
102
{ACAD_REACTORS
330
17
102
}
330
17
100
AcDbMlineStyle
  2
Standard
 70
     0
  3

 62
   256
 51
90.0
 52
90.0
 71
     2
 49
0.5
 62
   256
  6
BYLAYER
 49
-0.5
 62
   256
  6
BYLAYER
  0
ACDBPLACEHOLDER
  5
F
102
{ACAD_REACTORS
330
E
102
}
330
E
  0
SCALE
  5
48
102
{ACAD_REACTORS
330
47
102
}
330
47
100
AcDbScale
 70
     0
300
1:1
140
1.0
141
1.0
290
     1
  0
SCALE
  5
49
102
{ACAD_REACTORS
330
47
102
}
330
47
100
AcDbScale
 70
     0
300
1/128" = 1'-0"
140
0.0078125
141
12.0
290
     0
  0
SCALE
  5
4A
102
{ACAD_REACTORS
330
47
102
}
330
47
100
AcDbScale
 70
     0
300
1/64" = 1'-0"
140
0.015625
141
12.0
290
     0
  0
SCALE
  5
4B
102
{ACAD_REACTORS
330
47
102
}
330
47
100
AcDbScale
 70
     0
300
1/32" = 1'-0"
140
0.03125
141
12.0
290
     0
  0
SCALE
  5
4C
102
{ACAD_REACTORS
330
47
102
}
330
47
100
AcDbScale
 70
     0
300
1/16" = 1'-0"
140
0.0625
141
12.0
290
     0
  0
SCALE
  5
4D
102
{ACAD_REACTORS
330
47
102
}
330
47
100
AcDbScale
 70
     0
300
3/32" = 1'-0"
140
0.09375
141
12.0
290
     0
  0
SCALE
  5
4E
102
{ACAD_REACTORS
330
47
102
}
330
47
100
AcDbScale
 70
     0
300
1/8" = 1'-0"
140
0.125
141
12.0
290
     0
  0
SCALE
  5
4F
102
{ACAD_REACTORS
330
47
102
}
330
47
100
AcDbScale
 70
     0
300
3/16" = 1'-0"
140
0.1875
141
12.0
290
     0
  0
SCALE
  5
50
102
{ACAD_REACTORS
330
47
102
}
330
47
100
AcDbScale
 70
     0
300
1/4" = 1'-0"
140
0.25
141
12.0
290
     0
  0
SCALE
  5
51
102
{ACAD_REACTORS
330
47
102
}
330
47
100
AcDbScale
 70
     0
300
3/8" = 1'-0"
140
0.375
141
12.0
290
     0
  0
SCALE
  5
52
102
{ACAD_REACTORS
330
47
102
}
330
47
100
AcDbScale
 70
     0
300
1/2" = 1'-0"
140
0.5
141
12.0
290
     0
  0
SCALE
  5
53
102
{ACAD_REACTORS
330
47
102
}
330
47
100
AcDbScale
 70
     0
300
3/4" = 1'-0"
140
0.75
141
12.0
290
     0
  0
SCALE
  5
54
102
{ACAD_REACTORS
330
47
102
}
330
47
100
AcDbScale
 70
     0
300
1" = 1'-0"
140
1.0
141
12.0
290
     0
  0
SCALE
  5
55
102
{ACAD_REACTORS
330
47
102
}
330
47
100
AcDbScale
 70
     0
300
1-1/2" = 1'-0"
140
1.5
141
12.0
290
     0
  0
SCALE
  5
56
102
{ACAD_REACTORS
330
47
102
}
330
47
100
AcDbScale
 70
     0
300
3" = 1'-0"
140
3.0
141
12.0
290
     0
  0
SCALE
  5
57
102
{ACAD_REACTORS
330
47
102
}
330
47
100
AcDbScale
 70
     0
300
6" = 1'-0"
140
6.0
141
12.0
290
     0
  0
SCALE
  5
58
102
{ACAD_REACTORS
330
47
102
}
330
47
100
AcDbScale
 70
     0
300
1'-0" = 1'-0"
140
12.0
141
12.0
290
     0
  0
TABLESTYLE
  5
5A
102
{ACAD_REACTORS
330
59
102
}
102
{ACAD_XDICTIONARY
360
19B
102
}
330
59
100
AcDbTableStyle
  3
Standard
 70
     0
 71
     0
 40
0.06
 41
0.06
280
     0
281
     0
  7
Standard
140
0.18
170
     2
 62
     0
 63
   257
283
     0
 90
        4
 91
        0
  1

274
    -2
284
     1
 64
     0
275
    -2
285
     1
 65
     0
276
    -2
286
     1
 66
     0
277
    -2
287
     1
 67
     0
278
    -2
288
     1
 68
     0
279
    -2
289
     1
 69
     0
  7
Standard
140
0.25
170
     5
 62
     0
 63
   257
283
     0
 90
        4
 91
        0
  1

274
    -2
284
     1
 64
     0
275
    -2
285
     1
 65
     0
276
    -2
286
     1
 66
     0
277
    -2
287
     1
 67
     0
278
    -2
288
     1
 68
     0
279
    -2
289
     1
 69
     0
  7
Standard
140
0.18
170
     5
 62
     0
 63
   257
283
     0
 90
        4
 91
        0
  1

274
    -2
284
     1
 64
     0
275
    -2
285
     1
 65
     0
276
    -2
286
     1
 66
     0
277
    -2
287
     1
 67
     0
278
    -2
288
     1
 68
     0
279
    -2
289
     1
 69
     0
  0
VISUALSTYLE
  5
2F
102
{ACAD_REACTORS
330
2A
102
}
330
2A
100
AcDbVisualStyle
  2
2dWireframe
 70
     4
177
     3
291
     0
 70
    58
 90
        0
176
     1
 90
        2
176
     1
 90
        0
176
     1
 90
        0
176
     1
 40
0.6
176
     1
 40
30.0
176
     1
 62
     7
420
 16777215
176
     1
 90
        1
176
     1
 90
        4
176
     1
 62
     7
176
     1
 62
   257
176
     1
 90
        1
176
     1
 90
        1
176
     1
 40
1.0
176
     1
 90
        0
176
     1
 62
   257
176
     1
 40
1.0
176
     1
 90
        1
176
     1
 90
        6
176
     1
 90
        2
176
     1
 62
     7
176
     1
 90
        5
176
     1
 90
        0
176
     1
 90
        0
176
     1
290
     0
176
     1
 90
        1
176
     1
 40
0.0
176
     1
 90
        0
176
     1
290
     1
176
     1
290
     1
176
     1
290
     0
176
     1
290
     0
176
     1
290
     0
176
     1
290
     0
176
     1
290
     0
176
     1
290
     0
176
     1
290
     0
176
     1
 90
       50
176
     1
 40
0.0
176
     1
 40
1.0
176
     1
 90
        0
176
     1
 62
    18
420
        0
176
     1
 90
       50
176
     1
 90
        3
176
     1
 62
     5
420
      255
176
     1
290
     0
176
     1
 90
       50
176
     1
 90
       50
176
     1
 90
       50
176
     1
290
     0
176
     1
 90
       50
176
     1
 62
   256
176
     0
 40
1.0
176
     0
 90
        2
176
     1
  1
strokes_ogs.tif
176
     1
290
     0
176
     1
 40
1.0
176
     1
 40
1.0
176
     1
  0
VISUALSTYLE
  5
32
102
{ACAD_REACTORS
330
2A
102
}
330
2A
100
AcDbVisualStyle
  2
Basic
 70
     7
177
     3
291
     1
 70
    58
 90
        1
176
     1
 90
        0
176
     1
 90
        1
176
     1
 90
        0
176
     1
 40
0.6
176
     1
 40
30.0
176
     1
 62
     7
420
 16777215
176
     1
 90
        0
176
     1
 90
        4
176
     1
 62
     7
176
     1
 62
   257
176
     1
 90
        1
176
     1
 90
        1
176
     1
 40
1.0
176
     1
 90
        8
176
     1
 62
     7
176
     1
 40
1.0
176
     1
 90
        1
176
     1
 90
        6
176
     1
 90
        2
176
     1
 62
     7
176
     1
 90
        5
176
     1
 90
        0
176
     1
 90
        0
176
     1
290
     0
176
     1
 90
        1
176
     1
 40
0.0
176
     1
 90
        0
176
     1
290
     0
176
     1
290
     1
176
     1
290
     1
176
     1
290
     0
176
     1
290
     0
176
     1
290
     0
176
     1
290
     0
176
     1
290
     0
176
     1
290
     0
176
     1
 90
       50
176
     1
 40
0.0
176
     1
 40
1.0
176
     1
 90
        0
176
     1
 62
    18
420
        0
176
     1
 90
       50
176
     1
 90
        3
176
     1
 62
     5
420
      255
176
     1
290
     0
176
     1
 90
       50
176
     1
 90
       50
176
     1
 90
       50
176
     1
290
     0
176
     1
 90
       50
176
     1
 62
   256
176
     0
 40
1.0
176
     0
 90
        2
176
     1
  1
strokes_ogs.tif
176
     1
290
     0
176
     1
 40
1.0
176
     1
 40
1.0
176
     1
  0
VISUALSTYLE
  5
36
102
{ACAD_REACTORS
330
2A
102
}
330
2A
100
AcDbVisualStyle
  2
Brighten
 70
    12
177
     3
291
     1
 70
    58
 90
        2
176
     1
 90
        2
176
     1
 90
        0
176
     1
 90
        0
176
     1
 40
0.6
176
     1
 40
30.0
176
     1
 62
     7
420
 16777215
176
     1
 90
        1
176
     1
 90
        4
176
     1
 62
     7
176
     1
 62
   257
176
     1
 90
        1
176
     1
 90
        1
176
     1
 40
1.0
176
     1
 90
        8
176
     1
 62
     7
176
     1
 40
1.0
176
     1
 90
        1
176
     1
 90
        6
176
     1
 90
        2
176
     1
 62
     7
176
     1
 90
        5
176
     1
 90
        0
176
     1
 90
        0
176
     1
290
     0
176
     1
 90
        1
176
     1
 40
50.0
176
     1
 90
        0
176
     1
290
     0
176
     1
290
     1
176
     1
290
     1
176
     1
290
     0
176
     1
290
     0
176
     1
290
     0
176
     1
290
     0
176
     1
290
     0
176
     1
290
     0
176
     1
 90
       50
176
     1
 40
0.0
176
     1
 40
1.0
176
     1
 90
        0
176
     1
 62
    18
420
        0
176
     1
 90
       50
176
     1
 90
        3
176
     1
 62
     5
420
      255
176
     1
290
     0
176
     1
 90
       50
176
     1
 90
       50
176
     1
 90
       50
176
     1
290
     0
176
     1
 90
       50
176
     1
 62
   256
176
     0
 40
1.0
176
     0
 90
        2
176
     1
  1
strokes_ogs.tif
176
     1
290
     0
176
     1
 40
1.0
176
     1
 40
1.0
176
     1
  0
VISUALSTYLE
  5
3A
102
{ACAD_REACTORS
330
2A
102
}
330
2A
100
AcDbVisualStyle
  2
ColorChange
 70
    16
177
     3
291
     1
 70
    58
 90
        2
176
     1
 90
        2
176
     1
 90
        3
176
     1
 90
        0
176
     1
 40
0.6
176
     1
 40
30.0
176
     1
 62
     8
420
  8421504
176
     1
 90
        1
176
     1
 90
        4
176
     1
 62
     7
176
     1
 62
   257
176
     1
 90
        1
176
     1
 90
        1
176
     1
 40
1.0
176
     1
 90
        8
176
     1
 62
     8
420
  8421504
176
     1
 40
1.0
176
     1
 90
        1
176
     1
 90
        6
176
     1
 90
        2
176
     1
 62
     7
176
     1
 90
        5
176
     1
 90
        0
176
     1
 90
        0
176
     1
290
     0
176
     1
 90
        1
176
     1
 40
0.0
176
     1
 90
        0
176
     1
290
     0
176
     1
290
     1
176
     1
290
     1
176
     1
290
     0
176
     1
290
     0
176
     1
290
     0
176
     1
290
     0
176
     1
290
     0
176
     1
290
     0
176
     1
 90
       50
176
     1
 40
0.0
176
     1
 40
1.0
176
     1
 90
        0
176
     1
 62
    18
420
        0
176
     1
 90
       50
176
     1
 90
        3
176
     1
 62
     5
420
      255
176
     1
290
     0
176
     1
 90
       50
176
     1
 90
       50
176
     1
 90
       50
176
     1
290
     0
176
     1
 90
       50
176
     1
 62
   256
176
     0
 40
1.0
176
     0
 90
        2
176
     1
  1
strokes_ogs.tif
176
     1
290
     0
176
     1
 40
1.0
176
     1
 40
1.0
176
     1
  0
VISUALSTYLE
  5
34
102
{ACAD_REACTORS
330
2A
102
}
330
2A
100
AcDbVisualStyle
  2
Conceptual
 70
     9
177
     3
291
     0
 70
    58
 90
        3
176
     1
 90
        2
176
     1
 90
        0
176
     1
 90
        0
176
     1
 40
0.6
176
     1
 40
30.0
176
     1
 62
     7
420
 16777215
176
     1
 90
        2
176
     1
 90
        2
176
     1
 62
     7
176
     1
 62
   257
176
     1
 90
        1
176
     1
 90
        1
176
     1
 40
179.0
176
     1
 90
        8
176
     1
 62
     7
176
     1
 40
1.0
176
     1
 90
        1
176
     1
 90
        6
176
     1
 90
        2
176
     1
 62
     7
176
     1
 90
        3
176
     1
 90
        0
176
     1
 90
        0
176
     1
290
     0
176
     1
 90
        1
176
     1
 40
0.0
176
     1
 90
        0
176
     1
290
     0
176
     1
290
     1
176
     1
290
     1
176
     1
290
     0
176
     1
290
     0
176
     1
290
     0
176
     1
290
     0
176
     1
290
     0
176
     1
290
     0
176
     1
 90
       50
176
     1
 40
0.0
176
     1
 40
1.0
176
     1
 90
        0
176
     1
 62
    18
420
        0
176
     1
 90
       50
176
     1
 90
        3
176
     1
 62
     5
420
      255
176
     1
290
     0
176
     1
 90
       50
176
     1
 90
       50
176
     1
 90
       50
176
     1
290
     0
176
     1
 90
       50
176
     1
 62
   256
176
     0
 40
1.0
176
     0
 90
        2
176
     1
  1
strokes_ogs.tif
176
     1
290
     0
176
     1
 40
1.0
176
     1
 40
1.0
176
     1
  0
VISUALSTYLE
  5
35
102
{ACAD_REACTORS
330
2A
102
}
330
2A
100
AcDbVisualStyle
  2
Dim
 70
    11
177
     3
291
     1
 70
    58
 90
        2
176
     1
 90
        2
176
     1
 90
        0
176
     1
 90
        0
176
     1
 40
0.6
176
     1
 40
30.0
176
     1
 62
     7
420
 16777215
176
     1
 90
        1
176
     1
 90
        4
176
     1
 62
     7
176
     1
 62
   257
176
     1
 90
        1
176
     1
 90
        1
176
     1
 40
1.0
176
     1
 90
        8
176
     1
 62
     7
176
     1
 40
1.0
176
     1
 90
        1
176
     1
 90
        6
176
     1
 90
        2
176
     1
 62
     7
176
     1
 90
        5
176
     1
 90
        0
176
     1
 90
        0
176
     1
290
     0
176
     1
 90
        1
176
     1
 40
-50.0
176
     1
 90
        0
176
     1
290
     0
176
     1
290
     1
176
     1
290
     1
176
     1
290
     0
176
     1
290
     0
176
     1
290
     0
176
     1
290
     0
176
     1
290
     0
176
     1
290
     0
176
     1
 90
       50
176
     1
 40
0.0
176
     1
 40
1.0
176
     1
 90
        0
176
     1
 62
    18
420
        0
176
     1
 90
       50
176
     1
 90
        3
176
     1
 62
     5
420
      255
176
     1
290
     0
176
     1
 90
       50
176
     1
 90
       50
176
     1
 90
       50
176
     1
290
     0
176
     1
 90
       50
176
     1
 62
   256
176
     0
 40
1.0
176
     0
 90
        2
176
     1
  1
strokes_ogs.tif
176
     1
290
     0
176
     1
 40
1.0
176
     1
 40
1.0
176
     1
  0
VISUALSTYLE
  5
3D
102
{ACAD_REACTORS
330
2A
102
}
330
2A
100
AcDbVisualStyle
  2
EdgeColorOff
 70
    22
177
     3
291
     1
 70
    58
 90
        2
176
     0
 90
        2
176
     0
 90
        0
176
     0
 90
        0
176
     0
 40
0.6
176
     0
 40
30.0
176
     0
 62
     7
420
 16777215
176
     0
 90
        1
176
     0
 90
        4
176
     0
 62
     7
176
     0
 62
   257
176
     0
 90
        1
176
     0
 90
        1
176
     0
 40
1.0
176
     0
 90
        8
176
     2
 62
     7
176
     0
 40
1.0
176
     0
 90
        1
176
     0
 90
        6
176
     0
 90
        2
176
     0
 62
     7
176
     0
 90
        5
176
     0
 90
        0
176
     0
 90
        0
176
     0
290
     0
176
     0
 90
        1
176
     0
 40
0.0
176
     0
 90
        0
176
     0
290
     0
176
     0
290
     1
176
     0
290
     1
176
     0
290
     0
176
     0
290
     0
176
     0
290
     0
176
     0
290
     0
176
     0
290
     0
176
     0
290
     0
176
     0
 90
       50
176
     0
 40
0.0
176
     0
 40
1.0
176
     0
 90
        0
176
     0
 62
    18
420
        0
176
     0
 90
       50
176
     0
 90
        3
176
     0
 62
     5
420
      255
176
     0
290
     0
176
     0
 90
       50
176
     0
 90
       50
176
     0
 90
       50
176
     0
290
     0
176
     0
 90
       50
176
     0
 62
   256
176
     0
 40
1.0
176
     0
 90
        2
176
     0
  1
strokes_ogs.tif
176
     0
290
     0
176
     0
 40
1.0
176
     0
 40
1.0
176
     0
  0
VISUALSTYLE
  5
39
102
{ACAD_REACTORS
330
2A
102
}
330
2A
100
AcDbVisualStyle
  2
Facepattern
 70
    15
177
     3
291
     1
 70
    58
 90
        2
176
     1
 90
        2
176
     1
 90
        0
176
     1
 90
        0
176
     1
 40
0.6
176
     1
 40
30.0
176
     1
 62
     7
420
 16777215
176
     1
 90
        1
176
     1
 90
        4
176
     1
 62
     7
176
     1
 62
   257
176
     1
 90
        1
176
     1
 90
        1
176
     1
 40
1.0
176
     1
 90
        8
176
     1
 62
     7
176
     1
 40
1.0
176
     1
 90
        1
176
     1
 90
        6
176
     1
 90
        2
176
     1
 62
     7
176
     1
 90
        5
176
     1
 90
        0
176
     1
 90
        0
176
     1
290
     0
176
     1
 90
        1
176
     1
 40
0.0
176
     1
 90
        0
176
     1
290
     0
176
     1
290
     1
176
     1
290
     1
176
     1
290
     0
176
     1
290
     0
176
     1
290
     0
176
     1
290
     0
176
     1
290
     0
176
     1
290
     0
176
     1
 90
       50
176
     1
 40
0.0
176
     1
 40
1.0
176
     1
 90
        0
176
     1
 62
    18
420
        0
176
     1
 90
       50
176
     1
 90
        3
176
     1
 62
     5
420
      255
176
     1
290
     0
176
     1
 90
       50
176
     1
 90
       50
176
     1
 90
       50
176
     1
290
     0
176
     1
 90
       50
176
     1
 62
   256
176
     0
 40
1.0
176
     0
 90
        2
176
     1
  1
strokes_ogs.tif
176
     1
290
     0
176
     1
 40
1.0
176
     1
 40
1.0
176
     1
  0
VISUALSTYLE
  5
2B
102
{ACAD_REACTORS
330
2A
102
}
330
2A
100
AcDbVisualStyle
  2
Flat
 70
     0
177
     3
291
     1
 70
    58
 90
        2
176
     1
 90
        1
176
     1
 90
        1
176
     1
 90
        2
176
     1
 40
0.6
176
     1
 40
30.0
176
     1
 62
     7
420
 16777215
176
     1
 90
        0
176
     1
 90
        0
176
     1
 62
     7
176
     1
 62
   257
176
     1
 90
        1
176
     1
 90
        1
176
     1
 40
1.0
176
     1
 90
        8
176
     1
 62
     7
176
     1
 40
1.0
176
     1
 90
        1
176
     1
 90
        6
176
     1
 90
        2
176
     1
 62
     7
176
     1
 90
        5
176
     1
 90
        0
176
     1
 90
        0
176
     1
290
     0
176
     1
 90
       13
176
     1
 40
0.0
176
     1
 90
        0
176
     1
290
     0
176
     1
290
     1
176
     1
290
     1
176
     1
290
     0
176
     1
290
     0
176
     1
290
     0
176
     1
290
     0
176
     1
290
     0
176
     1
290
     0
176
     1
 90
       50
176
     1
 40
0.0
176
     1
 40
1.0
176
     1
 90
        0
176
     1
 62
    18
420
        0
176
     1
 90
       50
176
     1
 90
        3
176
     1
 62
     5
420
      255
176
     1
290
     0
176
     1
 90
       50
176
     1
 90
       50
176
     1
 90
       50
176
     1
290
     0
176
     1
 90
       50
176
     1
 62
   256
176
     0
 40
1.0
176
     0
 90
        2
176
     1
  1
strokes_ogs.tif
176
     1
290
     0
176
     1
 40
1.0
176
     1
 40
1.0
176
     1
  0
VISUALSTYLE
  5
2C
102
{ACAD_REACTORS
330
2A
102
}
330
2A
100
AcDbVisualStyle
  2
FlatWithEdges
 70
     1
177
     3
291
     1
 70
    58
 90
        2
176
     1
 90
        1
176
     1
 90
        1
176
     1
 90
        2
176
     1
 40
0.6
176
     1
 40
30.0
176
     1
 62
     7
420
 16777215
176
     1
 90
        1
176
     1
 90
        0
176
     1
 62
     7
176
     1
 62
   257
176
     1
 90
        1
176
     1
 90
        1
176
     1
 40
1.0
176
     1
 90
        0
176
     1
 62
   257
176
     1
 40
1.0
176
     1
 90
        1
176
     1
 90
        6
176
     1
 90
        2
176
     1
 62
     7
176
     1
 90
        5
176
     1
 90
        0
176
     1
 90
        0
176
     1
290
     0
176
     1
 90
       13
176
     1
 40
0.0
176
     1
 90
        0
176
     1
290
     0
176
     1
290
     1
176
     1
290
     1
176
     1
290
     0
176
     1
290
     0
176
     1
290
     0
176
     1
290
     0
176
     1
290
     0
176
     1
290
     0
176
     1
 90
       50
176
     1
 40
0.0
176
     1
 40
1.0
176
     1
 90
        0
176
     1
 62
    18
420
        0
176
     1
 90
       50
176
     1
 90
        3
176
     1
 62
     5
420
      255
176
     1
290
     0
176
     1
 90
       50
176
     1
 90
       50
176
     1
 90
       50
176
     1
290
     0
176
     1
 90
       50
176
     1
 62
   256
176
     0
 40
1.0
176
     0
 90
        2
176
     1
  1
strokes_ogs.tif
176
     1
290
     0
176
     1
 40
1.0
176
     1
 40
1.0
176
     1
  0
VISUALSTYLE
  5
2D
102
{ACAD_REACTORS
330
2A
102
}
330
2A
100
AcDbVisualStyle
  2
Gouraud
 70
     2
177
     3
291
     1
 70
    58
 90
        2
176
     1
 90
        2
176
     1
 90
        1
176
     1
 90
        2
176
     1
 40
0.6
176
     1
 40
30.0
176
     1
 62
     7
420
 16777215
176
     1
 90
        0
176
     1
 90
        0
176
     1
 62
     7
176
     1
 62
   257
176
     1
 90
        1
176
     1
 90
        1
176
     1
 40
1.0
176
     1
 90
        0
176
     1
 62
     7
176
     1
 40
1.0
176
     1
 90
        1
176
     1
 90
        6
176
     1
 90
        2
176
     1
 62
     7
176
     1
 90
        5
176
     1
 90
        0
176
     1
 90
        0
176
     1
290
     0
176
     1
 90
       13
176
     1
 40
0.0
176
     1
 90
        0
176
     1
290
     0
176
     1
290
     1
176
     1
290
     1
176
     1
290
     0
176
     1
290
     0
176
     1
290
     0
176
     1
290
     0
176
     1
290
     0
176
     1
290
     0
176
     1
 90
       50
176
     1
 40
0.0
176
     1
 40
1.0
176
     1
 90
        0
176
     1
 62
    18
420
        0
176
     1
 90
       50
176
     1
 90
        3
176
     1
 62
     5
420
      255
176
     1
290
     0
176
     1
 90
       50
176
     1
 90
       50
176
     1
 90
       50
176
     1
290
     0
176
     1
 90
       50
176
     1
 62
   256
176
     0
 40
1.0
176
     0
 90
        2
176
     1
  1
strokes_ogs.tif
176
     1
290
     0
176
     1
 40
1.0
176
     1
 40
1.0
176
     1
  0
VISUALSTYLE
  5
2E
102
{ACAD_REACTORS
330
2A
102
}
330
2A
100
AcDbVisualStyle
  2
GouraudWithEdges
 70
     3
177
     3
291
     1
 70
    58
 90
        2
176
     1
 90
        2
176
     1
 90
        1
176
     1
 90
        2
176
     1
 40
0.6
176
     1
 40
30.0
176
     1
 62
     7
420
 16777215
176
     1
 90
        1
176
     1
 90
        0
176
     1
 62
     7
176
     1
 62
   257
176
     1
 90
        1
176
     1
 90
        1
176
     1
 40
1.0
176
     1
 90
        0
176
     1
 62
   257
176
     1
 40
1.0
176
     1
 90
        1
176
     1
 90
        6
176
     1
 90
        2
176
     1
 62
     7
176
     1
 90
        5
176
     1
 90
        0
176
     1
 90
        0
176
     1
290
     0
176
     1
 90
       13
176
     1
 40
0.0
176
     1
 90
        0
176
     1
290
     0
176
     1
290
     1
176
     1
290
     1
176
     1
290
     0
176
     1
290
     0
176
     1
290
     0
176
     1
290
     0
176
     1
290
     0
176
     1
290
     0
176
     1
 90
       50
176
     1
 40
0.0
176
     1
 40
1.0
176
     1
 90
        0
176
     1
 62
    18
420
        0
176
     1
 90
       50
176
     1
 90
        3
176
     1
 62
     5
420
      255
176
     1
290
     0
176
     1
 90
       50
176
     1
 90
       50
176
     1
 90
       50
176
     1
290
     0
176
     1
 90
       50
176
     1
 62
   256
176
     0
 40
1.0
176
     0
 90
        2
176
     1
  1
strokes_ogs.tif
176
     1
290
     0
176
     1
 40
1.0
176
     1
 40
1.0
176
     1
  0
VISUALSTYLE
  5
31
102
{ACAD_REACTORS
330
2A
102
}
330
2A
100
AcDbVisualStyle
  2
Hidden
 70
     6
177
     3
291
     0
 70
    58
 90
        1
176
     1
 90
        2
176
     1
 90
        2
176
     1
 90
        0
176
     1
 40
0.6
176
     1
 40
30.0
176
     1
 62
     7
420
 16777215
176
     1
 90
        2
176
     1
 90
        2
176
     1
 62
     7
176
     1
 62
   257
176
     1
 90
        2
176
     1
 90
        1
176
     1
 40
40.0
176
     1
 90
        0
176
     1
 62
   257
176
     1
 40
1.0
176
     1
 90
        1
176
     1
 90
        6
176
     1
 90
        2
176
     1
 62
     7
176
     1
 90
        3
176
     1
 90
        0
176
     1
 90
        0
176
     1
290
     0
176
     1
 90
        1
176
     1
 40
0.0
176
     1
 90
        0
176
     1
290
     0
176
     1
290
     1
176
     1
290
     1
176
     1
290
     0
176
     1
290
     0
176
     1
290
     0
176
     1
290
     0
176
     1
290
     0
176
     1
290
     0
176
     1
 90
       50
176
     1
 40
0.0
176
     1
 40
1.0
176
     1
 90
        0
176
     1
 62
    18
420
        0
176
     1
 90
       50
176
     1
 90
        3
176
     1
 62
     5
420
      255
176
     1
290
     0
176
     1
 90
       50
176
     1
 90
       50
176
     1
 90
       50
176
     1
290
     0
176
     1
 90
       50
176
     1
 62
   256
176
     0
 40
1.0
176
     0
 90
        2
176
     1
  1
strokes_ogs.tif
176
     1
290
     0
176
     1
 40
1.0
176
     1
 40
1.0
176
     1
  0
VISUALSTYLE
  5
3B
102
{ACAD_REACTORS
330
2A
102
}
330
2A
100
AcDbVisualStyle
  2
JitterOff
 70
    20
177
     3
291
     1
 70
    58
 90
        2
176
     0
 90
        2
176
     0
 90
        0
176
     0
 90
        0
176
     0
 40
0.6
176
     0
 40
30.0
176
     0
 62
     7
420
 16777215
176
     0
 90
        1
176
     0
 90
        4
176
     0
 62
     7
176
     0
 62
   257
176
     0
 90
        1
176
     0
 90
        1
176
     0
 40
1.0
176
     0
 90
       10
176
     2
 62
     7
176
     0
 40
1.0
176
     0
 90
        1
176
     0
 90
        6
176
     0
 90
        2
176
     0
 62
     7
176
     0
 90
        5
176
     0
 90
        0
176
     0
 90
        0
176
     0
290
     0
176
     0
 90
        1
176
     0
 40
0.0
176
     0
 90
        0
176
     0
290
     0
176
     0
290
     1
176
     0
290
     1
176
     0
290
     0
176
     0
290
     0
176
     0
290
     0
176
     0
290
     0
176
     0
290
     0
176
     0
290
     0
176
     0
 90
       50
176
     0
 40
0.0
176
     0
 40
1.0
176
     0
 90
        0
176
     0
 62
    18
420
        0
176
     0
 90
       50
176
     0
 90
        3
176
     0
 62
     5
420
      255
176
     0
290
     0
176
     0
 90
       50
176
     0
 90
       50
176
     0
 90
       50
176
     0
290
     0
176
     0
 90
       50
176
     0
 62
   256
176
     0
 40
1.0
176
     0
 90
        2
176
     0
  1
strokes_ogs.tif
176
     0
290
     0
176
     0
 40
1.0
176
     0
 40
1.0
176
     0
  0
VISUALSTYLE
  5
38
102
{ACAD_REACTORS
330
2A
102
}
330
2A
100
AcDbVisualStyle
  2
Linepattern
 70
    14
177
     3
291
     1
 70
    58
 90
        2
176
     1
 90
        2
176
     1
 90
        0
176
     1
 90
        0
176
     1
 40
0.6
176
     1
 40
30.0
176
     1
 62
     7
420
 16777215
176
     1
 90
        1
176
     1
 90
        4
176
     1
 62
     7
176
     1
 62
   257
176
     1
 90
        7
176
     1
 90
        7
176
     1
 40
1.0
176
     1
 90
        8
176
     1
 62
     7
176
     1
 40
1.0
176
     1
 90
        1
176
     1
 90
        6
176
     1
 90
        2
176
     1
 62
     7
176
     1
 90
        5
176
     1
 90
        0
176
     1
 90
        0
176
     1
290
     0
176
     1
 90
        1
176
     1
 40
0.0
176
     1
 90
        0
176
     1
290
     0
176
     1
290
     1
176
     1
290
     1
176
     1
290
     0
176
     1
290
     0
176
     1
290
     0
176
     1
290
     0
176
     1
290
     0
176
     1
290
     0
176
     1
 90
       50
176
     1
 40
0.0
176
     1
 40
1.0
176
     1
 90
        0
176
     1
 62
    18
420
        0
176
     1
 90
       50
176
     1
 90
        3
176
     1
 62
     5
420
      255
176
     1
290
     0
176
     1
 90
       50
176
     1
 90
       50
176
     1
 90
       50
176
     1
290
     0
176
     1
 90
       50
176
     1
 62
   256
176
     0
 40
1.0
176
     0
 90
        2
176
     1
  1
strokes_ogs.tif
176
     1
290
     0
176
     1
 40
1.0
176
     1
 40
1.0
176
     1
  0
VISUALSTYLE
  5
3C
102
{ACAD_REACTORS
330
2A
102
}
330
2A
100
AcDbVisualStyle
  2
OverhangOff
 70
    21
177
     3
291
     1
 70
    58
 90
        2
176
     0
 90
        2
176
     0
 90
        0
176
     0
 90
        0
176
     0
 40
0.6
176
     0
 40
30.0
176
     0
 62
     7
420
 16777215
176
     0
 90
        1
176
     0
 90
        4
176
     0
 62
     7
176
     0
 62
   257
176
     0
 90
        1
176
     0
 90
        1
176
     0
 40
1.0
176
     0
 90
        9
176
     2
 62
     7
176
     0
 40
1.0
176
     0
 90
        1
176
     0
 90
        6
176
     0
 90
        2
176
     0
 62
     7
176
     0
 90
        5
176
     0
 90
        0
176
     0
 90
        0
176
     0
290
     0
176
     0
 90
        1
176
     0
 40
0.0
176
     0
 90
        0
176
     0
290
     0
176
     0
290
     1
176
     0
290
     1
176
     0
290
     0
176
     0
290
     0
176
     0
290
     0
176
     0
290
     0
176
     0
290
     0
176
     0
290
     0
176
     0
 90
       50
176
     0
 40
0.0
176
     0
 40
1.0
176
     0
 90
        0
176
     0
 62
    18
420
        0
176
     0
 90
       50
176
     0
 90
        3
176
     0
 62
     5
420
      255
176
     0
290
     0
176
     0
 90
       50
176
     0
 90
       50
176
     0
 90
       50
176
     0
290
     0
176
     0
 90
       50
176
     0
 62
   256
176
     0
 40
1.0
176
     0
 90
        2
176
     0
  1
strokes_ogs.tif
176
     0
290
     0
176
     0
 40
1.0
176
     0
 40
1.0
176
     0
  0
VISUALSTYLE
  5
33
102
{ACAD_REACTORS
330
2A
102
}
330
2A
100
AcDbVisualStyle
  2
Realistic
 70
     8
177
     3
291
     0
 70
    58
 90
        2
176
     1
 90
        3
176
     1
 90
        0
176
     1
 90
        2
176
     1
 40
0.6
176
     1
 40
30.0
176
     1
 62
     7
420
 16777215
176
     1
 90
        0
176
     1
 90
        0
176
     1
 62
     7
176
     1
 62
   257
176
     1
 90
        1
176
     1
 90
        1
176
     1
 40
1.0
176
     1
 90
        8
176
     1
 62
   257
176
     1
 40
1.0
176
     1
 90
        1
176
     1
 90
        6
176
     1
 90
        2
176
     1
 62
     7
176
     1
 90
        3
176
     1
 90
        0
176
     1
 90
        0
176
     1
290
     0
176
     1
 90
       13
176
     1
 40
0.0
176
     1
 90
        0
176
     1
290
     0
176
     1
290
     1
176
     1
290
     1
176
     1
290
     0
176
     1
290
     0
176
     1
290
     0
176
     1
290
     0
176
     1
290
     0
176
     1
290
     0
176
     1
 90
       50
176
     1
 40
0.0
176
     1
 40
1.0
176
     1
 90
        0
176
     1
 62
    18
420
        0
176
     1
 90
       50
176
     1
 90
        3
176
     1
 62
     5
420
      255
176
     1
290
     0
176
     1
 90
       50
176
     1
 90
       50
176
     1
 90
       50
176
     1
290
     0
176
     1
 90
       50
176
     1
 62
   256
176
     0
 40
1.0
176
     0
 90
        2
176
     1
  1
strokes_ogs.tif
176
     1
290
     0
176
     1
 40
1.0
176
     1
 40
1.0
176
     1
  0
VISUALSTYLE
  5
42
102
{ACAD_REACTORS
330
2A
102
}
330
2A
100
AcDbVisualStyle
  2
Shaded
 70
    27
177
     3
291
     0
 70
    58
 90
        2
176
     1
 90
        2
176
     1
 90
        1
176
     1
 90
        2
176
     1
 40
0.6
176
     1
 40
30.0
176
     1
 62
     7
420
 16777215
176
     1
 90
        0
176
     1
 90
        4
176
     1
 62
     7
176
     1
 62
   257
176
     1
 90
        1
176
     1
 90
        1
176
     1
 40
1.0
176
     1
 90
        8
176
     1
 62
   257
176
     1
 40
1.0
176
     1
 90
        1
176
     1
 90
        6
176
     1
 90
        2
176
     1
 62
     8
420
  7895160
176
     1
 90
        3
176
     1
 90
        0
176
     1
 90
        0
176
     1
290
     0
176
     1
 90
        5
176
     1
 40
0.0
176
     1
 90
        0
176
     1
290
     0
176
     1
290
     1
176
     1
290
     1
176
     1
290
     0
176
     1
290
     0
176
     1
290
     0
176
     1
290
     0
176
     1
290
     0
176
     1
290
     0
176
     1
 90
       50
176
     1
 40
0.0
176
     1
 40
1.0
176
     1
 90
        0
176
     1
 62
    18
420
        0
176
     1
 90
       50
176
     1
 90
        3
176
     1
 62
     5
420
      255
176
     1
290
     0
176
     1
 90
       50
176
     1
 90
       50
176
     1
 90
       50
176
     1
290
     0
176
     1
 90
       50
176
     1
 62
   256
176
     0
 40
1.0
176
     0
 90
        2
176
     1
  1
strokes_ogs.tif
176
     1
290
     0
176
     1
 40
1.0
176
     1
 40
1.0
176
     1
  0
VISUALSTYLE
  5
41
102
{ACAD_REACTORS
330
2A
102
}
330
2A
100
AcDbVisualStyle
  2
Shaded with edges
 70
    26
177
     3
291
     0
 70
    58
 90
        2
176
     1
 90
        2
176
     1
 90
        1
176
     1
 90
        2
176
     1
 40
0.6
176
     1
 40
30.0
176
     1
 62
     7
420
 16777215
176
     1
 90
        1
176
     1
 90
       10
176
     1
 62
     7
176
     1
 62
   257
176
     1
 90
        2
176
     1
 90
        1
176
     1
 40
1.0
176
     1
 90
        8
176
     1
 62
   257
176
     1
 40
1.0
176
     1
 90
        1
176
     1
 90
        6
176
     1
 90
        2
176
     1
 62
     7
176
     1
 90
        3
176
     1
 90
        0
176
     1
 90
        0
176
     1
290
     0
176
     1
 90
        5
176
     1
 40
0.0
176
     1
 90
        0
176
     1
290
     0
176
     1
290
     1
176
     1
290
     1
176
     1
290
     0
176
     1
290
     0
176
     1
290
     0
176
     1
290
     0
176
     1
290
     0
176
     1
290
     0
176
     1
 90
       50
176
     1
 40
0.0
176
     1
 40
1.0
176
     1
 90
        0
176
     1
 62
    18
420
        0
176
     1
 90
       50
176
     1
 90
        3
176
     1
 62
     5
420
      255
176
     1
290
     0
176
     1
 90
       50
176
     1
 90
       50
176
     1
 90
       50
176
     1
290
     0
176
     1
 90
       50
176
     1
 62
   256
176
     0
 40
1.0
176
     0
 90
        2
176
     1
  1
strokes_ogs.tif
176
     1
290
     0
176
     1
 40
1.0
176
     1
 40
1.0
176
     1
  0
VISUALSTYLE
  5
3E
102
{ACAD_REACTORS
330
2A
102
}
330
2A
100
AcDbVisualStyle
  2
Shades of Gray
 70
    23
177
     3
291
     0
 70
    58
 90
        2
176
     1
 90
        2
176
     1
 90
        3
176
     1
 90
        0
176
     1
 40
0.6
176
     1
 40
30.0
176
     1
 62
     7
420
 16777215
176
     1
 90
        2
176
     1
 90
        2
176
     1
 62
     7
176
     1
 62
     7
176
     1
 90
        1
176
     1
 90
        1
176
     1
 40
40.0
176
     1
 90
        8
176
     1
 62
     7
176
     1
 40
1.0
176
     1
 90
        1
176
     1
 90
        6
176
     1
 90
        2
176
     1
 62
     7
176
     1
 90
        3
176
     1
 90
        0
176
     1
 90
        0
176
     1
290
     0
176
     1
 90
        1
176
     1
 40
0.0
176
     1
 90
        0
176
     1
290
     0
176
     1
290
     1
176
     1
290
     1
176
     1
290
     0
176
     1
290
     0
176
     1
290
     0
176
     1
290
     0
176
     1
290
     0
176
     1
290
     0
176
     1
 90
       50
176
     1
 40
0.0
176
     1
 40
1.0
176
     1
 90
        0
176
     1
 62
    18
420
        0
176
     1
 90
       50
176
     1
 90
        3
176
     1
 62
     5
420
      255
176
     1
290
     0
176
     1
 90
       50
176
     1
 90
       50
176
     1
 90
       50
176
     1
290
     0
176
     1
 90
       50
176
     1
 62
   256
176
     0
 40
1.0
176
     0
 90
        2
176
     1
  1
strokes_ogs.tif
176
     1
290
     0
176
     1
 40
1.0
176
     1
 40
1.0
176
     1
  0
VISUALSTYLE
  5
3F
102
{ACAD_REACTORS
330
2A
102
}
330
2A
100
AcDbVisualStyle
  2
Sketchy
 70
    24
177
     3
291
     0
 70
    58
 90
        1
176
     1
 90
        2
176
     1
 90
        2
176
     1
 90
        0
176
     1
 40
0.6
176
     1
 40
30.0
176
     1
 62
     7
420
 16777215
176
     1
 90
        2
176
     1
 90
        2
176
     1
 62
     7
176
     1
 62
     7
176
     1
 90
        1
176
     1
 90
        1
176
     1
 40
40.0
176
     1
 90
       11
176
     1
 62
     7
176
     1
 40
1.0
176
     1
 90
        1
176
     1
 90
        6
176
     1
 90
        2
176
     1
 62
     7
176
     1
 90
        6
176
     1
 90
        0
176
     1
 90
        0
176
     1
290
     0
176
     1
 90
        1
176
     1
 40
0.0
176
     1
 90
        0
176
     1
290
     0
176
     1
290
     1
176
     1
290
     1
176
     1
290
     0
176
     1
290
     0
176
     1
290
     0
176
     1
290
     0
176
     1
290
     0
176
     1
290
     0
176
     1
 90
       50
176
     1
 40
0.0
176
     1
 40
1.0
176
     1
 90
        0
176
     1
 62
    18
420
        0
176
     1
 90
       50
176
     1
 90
        3
176
     1
 62
     5
420
      255
176
     1
290
     0
176
     1
 90
       50
176
     1
 90
       50
176
     1
 90
       50
176
     1
290
     0
176
     1
 90
       50
176
     1
 62
   256
176
     0
 40
1.0
176
     0
 90
        2
176
     1
  1
strokes_ogs.tif
176
     1
290
     0
176
     1
 40
1.0
176
     1
 40
1.0
176
     1
  0
VISUALSTYLE
  5
37
102
{ACAD_REACTORS
330
2A
102
}
330
2A
100
AcDbVisualStyle
  2
Thicken
 70
    13
177
     3
291
     1
 70
    58
 90
        2
176
     1
 90
        2
176
     1
 90
        0
176
     1
 90
        0
176
     1
 40
0.6
176
     1
 40
30.0
176
     1
 62
     7
420
 16777215
176
     1
 90
        1
176
     1
 90
        4
176
     1
 62
     7
176
     1
 62
   257
176
     1
 90
        1
176
     1
 90
        1
176
     1
 40
1.0
176
     1
 90
       12
176
     1
 62
     7
176
     1
 40
1.0
176
     1
 90
        1
176
     1
 90
        6
176
     1
 90
        2
176
     1
 62
     7
176
     1
 90
        5
176
     1
 90
        0
176
     1
 90
        0
176
     1
290
     0
176
     1
 90
        1
176
     1
 40
0.0
176
     1
 90
        0
176
     1
290
     0
176
     1
290
     1
176
     1
290
     1
176
     1
290
     0
176
     1
290
     0
176
     1
290
     0
176
     1
290
     0
176
     1
290
     0
176
     1
290
     0
176
     1
 90
       50
176
     1
 40
0.0
176
     1
 40
1.0
176
     1
 90
        0
176
     1
 62
    18
420
        0
176
     1
 90
       50
176
     1
 90
        3
176
     1
 62
     5
420
      255
176
     1
290
     0
176
     1
 90
       50
176
     1
 90
       50
176
     1
 90
       50
176
     1
290
     0
176
     1
 90
       50
176
     1
 62
   256
176
     0
 40
1.0
176
     0
 90
        2
176
     1
  1
strokes_ogs.tif
176
     1
290
     0
176
     1
 40
1.0
176
     1
 40
1.0
176
     1
  0
VISUALSTYLE
  5
30
102
{ACAD_REACTORS
330
2A
102
}
330
2A
100
AcDbVisualStyle
  2
Wireframe
 70
     5
177
     3
291
     0
 70
    58
 90
        0
176
     1
 90
        2
176
     1
 90
        0
176
     1
 90
        0
176
     1
 40
0.6
176
     1
 40
30.0
176
     1
 62
     7
420
 16777215
176
     1
 90
        1
176
     1
 90
        4
176
     1
 62
     7
176
     1
 62
   257
176
     1
 90
        1
176
     1
 90
        1
176
     1
 40
1.0
176
     1
 90
        0
176
     1
 62
   257
176
     1
 40
1.0
176
     1
 90
        1
176
     1
 90
        6
176
     1
 90
        2
176
     1
 62
     7
176
     1
 90
        3
176
     1
 90
        0
176
     1
 90
        0
176
     1
290
     0
176
     1
 90
        1
176
     1
 40
0.0
176
     1
 90
        0
176
     1
290
     0
176
     1
290
     1
176
     1
290
     1
176
     1
290
     0
176
     1
290
     0
176
     1
290
     0
176
     1
290
     0
176
     1
290
     0
176
     1
290
     0
176
     1
 90
       50
176
     1
 40
0.0
176
     1
 40
1.0
176
     1
 90
        0
176
     1
 62
    18
420
        0
176
     1
 90
       50
176
     1
 90
        3
176
     1
 62
     5
420
      255
176
     1
290
     0
176
     1
 90
       50
176
     1
 90
       50
176
     1
 90
       50
176
     1
290
     0
176
     1
 90
       50
176
     1
 62
   256
176
     0
 40
1.0
176
     0
 90
        2
176
     1
  1
strokes_ogs.tif
176
     1
290
     0
176
     1
 40
1.0
176
     1
 40
1.0
176
     1
  0
VISUALSTYLE
  5
40
102
{ACAD_REACTORS
330
2A
102
}
330
2A
100
AcDbVisualStyle
  2
X-Ray
 70
    25
177
     3
291
     0
 70
    58
 90
        2
176
     1
 90
        2
176
     1
 90
        1
176
     1
 90
        1
176
     1
 40
0.5
176
     1
 40
30.0
176
     1
 62
     7
420
 16777215
176
     1
 90
        1
176
     1
 90
        0
176
     1
 62
     7
176
     1
 62
   257
176
     1
 90
        1
176
     1
 90
        1
176
     1
 40
1.0
176
     1
 90
        8
176
     1
 62
     7
176
     1
 40
1.0
176
     1
 90
        1
176
     1
 90
        6
176
     1
 90
        2
176
     1
 62
     7
176
     1
 90
        3
176
     1
 90
        0
176
     1
 90
        0
176
     1
290
     0
176
     1
 90
       13
176
     1
 40
0.0
176
     1
 90
        0
176
     1
290
     0
176
     1
290
     1
176
     1
290
     1
176
     1
290
     0
176
     1
290
     0
176
     1
290
     0
176
     1
290
     0
176
     1
290
     0
176
     1
290
     0
176
     1
 90
       50
176
     1
 40
0.0
176
     1
 40
1.0
176
     1
 90
        0
176
     1
 62
    18
420
        0
176
     1
 90
       50
176
     1
 90
        3
176
     1
 62
     5
420
      255
176
     1
290
     0
176
     1
 90
       50
176
     1
 90
       50
176
     1
 90
       50
176
     1
290
     0
176
     1
 90
       50
176
     1
 62
   256
176
     0
 40
1.0
176
     0
 90
        2
176
     1
  1
strokes_ogs.tif
176
     1
290
     0
176
     1
 40
1.0
176
     1
 40
1.0
176
     1
  0
DICTIONARYVAR
  5
19A
102
{ACAD_REACTORS
330
199
102
}
330
199
100
DictionaryVariables
280
     0
  1
1:1
  0
DICTIONARYVAR
  5
19F
102
{ACAD_REACTORS
330
199
102
}
330
199
100
DictionaryVariables
280
     0
  1
Standard
  0
DICTIONARYVAR
  5
19E
102
{ACAD_REACTORS
330
199
102
}
330
199
100
DictionaryVariables
280
     0
  1
Standard
  0
DICTIONARY
  5
19B
330
5A
100
AcDbDictionary
280
     1
281
     1
  3
ACAD_ROUNDTRIP_2008_TABLESTYLE_CELLSTYLEMAP
360
19C
  0
CELLSTYLEMAP
  5
19C
102
{ACAD_REACTORS
330
19B
102
}
330
19B
100
AcDbCellStyleMap
 90
        3
300
CELLSTYLE
  1
TABLEFORMAT_BEGIN
 90
        5
170
     1
 91
        0
 92
    32768
 62
   257
 93
        1
300
CONTENTFORMAT
  1
CONTENTFORMAT_BEGIN
 90
        0
 91
        0
 92
        4
 93
        0
300

 40
0.0
140
1.0
 94
        5
 62
     0
340
11
144
0.25
309
CONTENTFORMAT_END
171
     1
301
MARGIN
  1
CELLMARGIN_BEGIN
 40
0.06
 40
0.06
 40
0.06
 40
0.06
 40
0.06
 40
0.06
309
CELLMARGIN_END
 94
        6
 95
        1
302
GRIDFORMAT
  1
GRIDFORMAT_BEGIN
 90
        0
 91
        1
 62
     0
 92
       -2
340
14
 93
        0
 40
0.045
309
GRIDFORMAT_END
 95
        2
302
GRIDFORMAT
  1
GRIDFORMAT_BEGIN
 90
        0
 91
        1
 62
     0
 92
       -2
340
14
 93
        0
 40
0.045
309
GRIDFORMAT_END
 95
        4
302
GRIDFORMAT
  1
GRIDFORMAT_BEGIN
 90
        0
 91
        1
 62
     0
 92
       -2
340
14
 93
        0
 40
0.045
309
GRIDFORMAT_END
 95
        8
302
GRIDFORMAT
  1
GRIDFORMAT_BEGIN
 90
        0
 91
        1
 62
     0
 92
       -2
340
14
 93
        0
 40
0.045
309
GRIDFORMAT_END
 95
       16
302
GRIDFORMAT
  1
GRIDFORMAT_BEGIN
 90
        0
 91
        1
 62
     0
 92
       -2
340
14
 93
        0
 40
0.045
309
GRIDFORMAT_END
 95
       32
302
GRIDFORMAT
  1
GRIDFORMAT_BEGIN
 90
        0
 91
        1
 62
     0
 92
       -2
340
14
 93
        0
 40
0.045
309
GRIDFORMAT_END
309
TABLEFORMAT_END
  1
CELLSTYLE_BEGIN
 90
        1
 91
        1
300
_TITLE
309
CELLSTYLE_END
300
CELLSTYLE
  1
TABLEFORMAT_BEGIN
 90
        5
170
     1
 91
        0
 92
        0
 62
   257
 93
        1
300
CONTENTFORMAT
  1
CONTENTFORMAT_BEGIN
 90
        0
 91
        0
 92
        4
 93
        0
300

 40
0.0
140
1.0
 94
        5
 62
     0
340
11
144
0.18
309
CONTENTFORMAT_END
171
     1
301
MARGIN
  1
CELLMARGIN_BEGIN
 40
0.06
 40
0.06
 40
0.06
 40
0.06
 40
0.06
 40
0.06
309
CELLMARGIN_END
 94
        6
 95
        1
302
GRIDFORMAT
  1
GRIDFORMAT_BEGIN
 90
        0
 91
        1
 62
     0
 92
       -2
340
14
 93
        0
 40
0.045
309
GRIDFORMAT_END
 95
        2
302
GRIDFORMAT
  1
GRIDFORMAT_BEGIN
 90
        0
 91
        1
 62
     0
 92
       -2
340
14
 93
        0
 40
0.045
309
GRIDFORMAT_END
 95
        4
302
GRIDFORMAT
  1
GRIDFORMAT_BEGIN
 90
        0
 91
        1
 62
     0
 92
       -2
340
14
 93
        0
 40
0.045
309
GRIDFORMAT_END
 95
        8
302
GRIDFORMAT
  1
GRIDFORMAT_BEGIN
 90
        0
 91
        1
 62
     0
 92
       -2
340
14
 93
        0
 40
0.045
309
GRIDFORMAT_END
 95
       16
302
GRIDFORMAT
  1
GRIDFORMAT_BEGIN
 90
        0
 91
        1
 62
     0
 92
       -2
340
14
 93
        0
 40
0.045
309
GRIDFORMAT_END
 95
       32
302
GRIDFORMAT
  1
GRIDFORMAT_BEGIN
 90
        0
 91
        1
 62
     0
 92
       -2
340
14
 93
        0
 40
0.045
309
GRIDFORMAT_END
309
TABLEFORMAT_END
  1
CELLSTYLE_BEGIN
 90
        2
 91
        1
300
_HEADER
309
CELLSTYLE_END
300
CELLSTYLE
  1
TABLEFORMAT_BEGIN
 90
        5
170
     1
 91
        0
 92
        0
 62
   257
 93
        1
300
CONTENTFORMAT
  1
CONTENTFORMAT_BEGIN
 90
        0
 91
        0
 92
        4
 93
        0
300

 40
0.0
140
1.0
 94
        2
 62
     0
340
11
144
0.18
309
CONTENTFORMAT_END
171
     1
301
MARGIN
  1
CELLMARGIN_BEGIN
 40
0.06
 40
0.06
 40
0.06
 40
0.06
 40
0.06
 40
0.06
309
CELLMARGIN_END
 94
        6
 95
        1
302
GRIDFORMAT
  1
GRIDFORMAT_BEGIN
 90
        0
 91
        1
 62
     0
 92
       -2
340
14
 93
        0
 40
0.045
309
GRIDFORMAT_END
 95
        2
302
GRIDFORMAT
  1
GRIDFORMAT_BEGIN
 90
        0
 91
        1
 62
     0
 92
       -2
340
14
 93
        0
 40
0.045
309
GRIDFORMAT_END
 95
        4
302
GRIDFORMAT
  1
GRIDFORMAT_BEGIN
 90
        0
 91
        1
 62
     0
 92
       -2
340
14
 93
        0
 40
0.045
309
GRIDFORMAT_END
 95
        8
302
GRIDFORMAT
  1
GRIDFORMAT_BEGIN
 90
        0
 91
        1
 62
     0
 92
       -2
340
14
 93
        0
 40
0.045
309
GRIDFORMAT_END
 95
       16
302
GRIDFORMAT
  1
GRIDFORMAT_BEGIN
 90
        0
 91
        1
 62
     0
 92
       -2
340
14
 93
        0
 40
0.045
309
GRIDFORMAT_END
 95
       32
302
GRIDFORMAT
  1
GRIDFORMAT_BEGIN
 90
        0
 91
        1
 62
     0
 92
       -2
340
14
 93
        0
 40
0.045
309
GRIDFORMAT_END
309
TABLEFORMAT_END
  1
CELLSTYLE_BEGIN
 90
        3
 91
        2
300
_DATA
309
CELLSTYLE_END
  0
ENDSEC
  0
EOF
